Guitar Tabs Explorer
Rory Gallagher guitar tabs for Tattooed lady

Tattooed Lady tab


Be the first to rate

Tattooed Lady tab by Rory Gallagher

Solo tabs

Print

Solo 1:
e|-------------------------------------------------|-----15p12------12------15p12--------12----------|
B|-15pb--15pb--15pb--15pb--15pb--15pb--15pb--15pbr-|-12----------15------15----------15------15--15b-|
G|-------------------------------------------------|-------------------------------------------------|
D|-------------------------------------------------|-------------------------------------------------|
A|-------------------------------------------------|-------------------------------------------------|
E|-------------------------------------------------|-------------------------------------------------|

e|-15b--15b--15b--15b--15br------|-12------------|----------------------------------|
B|-------------------------------|-----15--15b---|-14p12------12--14--14p12------12-|
G|-------------------------------|---------------|--------14-----------------14-----|
D|-------------------------------|---------------|----------------------------------|
A|-------------------------------|---------------|----------------------------------|
E|-------------------------------|---------------|----------------------------------|

e|-------------------------------------|-----------------------12--14--14b-|-14b--14b--14b--14b-|
B|--------------------10--12--14--14br-|-12h14p12------12--14--------------|--------------------|
G|--------11---------------------------|-----------14----------------------|--------------------|
D|-11h13------11h13--------------------|-----------------------------------|--------------------|
A|-------------------------------------|-----------------------------------|--------------------|
E|-------------------------------------|-----------------------------------|--------------------|

e|-14br--12h14--12--11--12p11--9--11p9------9---------|-------------------------------------|
B|--------------------------------------12-----12--10-|-12b--12--12p10-------12-------------|
G|----------------------------------------------------|-----------------11b-(hold)----11pbr-|
D|----------------------------------------------------|-------------------------------------|
A|----------------------------------------------------|-------------------------------------|
E|----------------------------------------------------|-------------------------------------|

e|----------------------|---------------------------------------------|
B|----------------------|---------------------------------------------|
G|-11p9-------9--11--13-|-13p11-------11--13--13b--13b--13br--11--9~~-|
D|-------11-------------|--------14-----------------------------------|
A|----------------------|---------------------------------------------|
E|----------------------|---------------------------------------------|

Outro Solo:
e|------------------------------------------------|-15p12------15p12------15p12--15p12------12~~-|
B|-15pb-15pb--15pb--15pb--15pb--15pb--15pb--15pbr-|--------15---------15----------------15-------|
G|------------------------------------------------|----------------------------------------------|
D|------------------------------------------------|----------------------------------------------|
A|------------------------------------------------|----------------------------------------------|
E|------------------------------------------------|----------------------------------------------|

e|--------------------|-------------------------------------------------------|
B|-12------12---------|--15p12------15p12------15p12--15p12------15p12--------|
G|-----12------12--12-|---------12---------12----------------12---------------|
D|--------------------|-------------------------------------------------------|
A|--------------------|-------------------------------------------------------|
E|--------------------|-------------------------------------------------------|


************************************

| p    Pull-off
| b    Bend
| pb   Pre-bend
| pbr  Pre-bend release
| br   Bend release
| h    Hammer-on
| ~    Vibrato

Comment this song and these solo tabs

Do you have corrections, comments on the solo tabs, thoughts about the song or a message to the author? Write them below.