Search tabs and chords

Browse bands and artists

A B C D E F G H I J K L M N O P Q R S T U V W X Y Z #

Log in

[ Register here | Forgot password ]

Guitar Tabs Explorer
Print

Guitar tabs :

Secret Agent tab by Rory Gallagher

Great song by one of the greatest musicians.


    Main Riff
-----------------------------------------------------
-----------------------------------------------------
-----------------------------------------------------
----7p5-----5----------------7p5-----5---------------
-------h7-7-----------5---------h7-7-----------5-----
--5-----------5h8-8-8----5-5-----------5h8-8-8------5
repeat

occasionaly play this
--------------------------
--------------------------
--------------------------
--5/7-5~~~~~--------------
--------5/7-5~~~~~--------
--------------5/8-5~~~~---
now that i think about it
that fill probably isn't right

You might want to capo the 5th fret

that's all for now.

if any one has "Country Mile", "Public Enemy" or "Walking Blues", can you please submit them?

Comments

Rory Gallagher guitar tabs for Secret agent