Guitar Tabs Explorer
Rory Gallagher guitar tabs for Going to my hometown

Going To My Hometown tab


Be the first to rate

Going To My Hometown tab by Rory Gallagher

Guitar tabs with lyrics

Print
GOING TO MY HOMETOWN (Live)

As recorded by Rory Gallagher
(From the 1972 Album LIVE! IN EUROPE)

Words and Music by Rory Gallagher

Transcribed by Slowhand


Gtr I (G chord diagramGG D chord diagramDD A chord diagramAA E chord diagramEE) - 'Rory Gallagher - Mandolin / Tuninmg: G chord diagramGG D chord diagramDD A chord diagramAA E chord diagramEE'


 Intro
  freely Q=94
  N.C.              G chord diagramGG
 4/4
  Gtr I (Mandolin - Tuning: G chord diagramGG D chord diagramDD A chord diagramAA E chord diagramEE)
                    TP
  Wx2          H chord diagramHH    Q  Q    +W           W
|------------|------3--3--|-(3)--------|------|
|------------|------2--2--|-(2)--------|------|
|------------|------0--0--|-(0)--------|------|
|------------|------0--0--|-(0)--------|------|


  N.C.
  S S S S S S S S S S S S S S S S   S S S S S S S S E chord diagramEE E chord diagramEE E chord diagramEE E chord diagramEE
|---------------------------------|-------------------------|
|---------------------------------|-------------------------|
|---------0-2-5-2-0-----0-5-2-0---|---0-5-2-0-----0-5-2-5-2-|
|---0-3-4-----------3-4---------3-|-4---------3-4-----------|


                                                      TP TP
          |-3-| |-3-| |-3-| |-3-|   |-3-| |-3-| |-3-|
  E chord diagramEE E chord diagramEE E chord diagramEE E chord diagramEE S S S S S S S S S S S S   S S S S S S S S S E chord diagramEE +Q   Q
|---------------------------------|-----------------------------|
|---------------------------------|-----------------------------|
|-5-2-5-2-5p2-0-5p2-0-5p2-0-5p2-0-|-5p2-0-5p2-0-5p2-5-5-(5)-----|
|---------0-----0-----0-----0-----|-0-----0-----0---0-0-(0)-----|


               G chord diagramGG                         D chord diagramDD
              3/4       4/4
               TP
  Wx2          H chord diagramHH.        e E chord diagramEE Q  e E chord diagramEE Q    e E chord diagramEE Q  H chord diagramHH
|------------|-3-------|-3------3------|-2-----------|
|------------|-2-------|-2------2------|-0-----------|
|------------|-0-------|-0------0------|-0-----------|
|------------|-0-------|-0------0------|-2-----------|


                        G chord diagramGG
                        TP
  W          W          H chord diagramHH.      +E  S S
|----------|----------|-3-------(3)-----|
|----------|----------|-2-------(2)---2-|
|----------|----------|-0-------(0)---0-|
|----------|----------|-0-------(0)---0-|


  a tempo Q=94
  S S S S S S S S S S S S E chord diagramEE E chord diagramEE   S S S S S S S S S S S S E chord diagramEE E chord diagramEE
|-------------------------3-3-|-------------------------3-3-|
|-2-2-2-2-2-2-2-2-2-2-2-2-2-2-|-2-2-2-2-2-2-2-2-2-2-2-2-2-2-|
|-0-0-0-0-5-0-3-3-0-0-0-0-0-0-|-0-0-0-0-5-0-3-3-0-0-0-0-0-0-|
|-0-3-4-0-0-0-0-0-0-3-4-0-0-0-|-0-3-4-0-0-0-0-0-0-3-4-0-0-0-|


                               3/4
                                  TP   TPTP
  S S S S S S S S S S S S E chord diagramEE E chord diagramEE   E chord diagramEE Q.   E chord diagramEE E chord diagramEE
|-------------------------3-3-|-3-3----3-3-||
|-2-2-2-2-2-2-2-2-2-2-2-2-2-2-|-2-2----2-2-||
|-0-0-0-0-5-0-3-3-0-0-0-0-0-0-|-0-0----0-0-||
|-0-3-4-0-0-0-0-0-0-3-4-0-0-0-|-0-0----0-0-||


   1st & 2nd Verses
    G chord diagramGG
   4/4
    E chord diagramEE S S S S S S E chord diagramEE S S S S S S   S S S S S S S S S S S S S S S S
||--3-3-3-3-3-3-3-3-3-3-3-3-3-3-|-3-3-3-3-3-3-2-2-2-2-2-2-2-2-2-0-|
||o-2-2-2-2-2-2-2-2-2-2-2-2-2-2-|-2-2-2-2-2-2-0-0-1-1-1-1-1-1-1-0-|
||o-0-0-0-0-0-0-0-0-0-0-0-0-0-0-|-0-0-0-0-0-0-0-0-0-0-0-0-0-0-0-0-|
||--0-0-0-0-0-0-0-0-0-0-0-0-0-0-|-0-0-0-0-0-0-0-0-0-0-0-0-0-0-0-0-|


                                                TP   TP
  E chord diagramEE S S S S S S S S S S S S S S   E chord diagramEE S S S S S S Q.   E chord diagramEE
|-3-3-3-------------------------|-3-3-3--------------2-|
|-2-2-2-2-2-2-2-2-2-2-2-2-2-2-2-|-2-2-2-2-2-2-2------0-|
|-0-0-0-0-0-0-0-5-0-3-3-0-0-0-0-|-0-0-0-0-0-0-0-5----0-|
|-0-0-0-0-3-4-0-0-0-0-0-0-3-4-0-|-0-0-0-0-3-4-0-0----0-|


  C chord diagramCC                             C7 chord diagramC7C7              G chord diagramGG
                                TP
  E chord diagramEE S S S S S S E chord diagramEE S S S S S S   H chord diagramHH.      +E  E chord diagramEE   E chord diagramEE S S S S S S S S S S S S S S
|-----------------------------|-0-------(0)-2-|-3-3-3-------------------------|
|-3-3-3-3-3-3-3-3-3-3-3-3-3-3-|-1-------(1)-0-|-2-2-2-2-2-2-2-2-2-2-2-2-2-2-2-|
|-2-2-2-2-2-2-2-2-2-2-2-2-2-2-|-2-------(2)-0-|-0-0-0-0-0-0-0-5-0-3-3-0-0-0-0-|
|-0-0-0-0-0-0-0-0-0-0-0-0-0-0-|-0-------(0)-0-|-0-0-0-0-3-4-0-0-0-0-0-0-3-4-0-|


                         D chord diagramDD                             C chord diagramCC    C7 chord diagramC7C7
                TP   TP                                TP   TP
  E chord diagramEE S S S S S S Q.   E chord diagramEE   E chord diagramEE S S S S S S E chord diagramEE S S S S S S   H chord diagramHH    Q.   E chord diagramEE
|-3-3-3--------------2-|-2-2-2-2-2-2-2-2-2-2-2-2-2-2-|-0----0----2-|
|-2-2-2-2-2-2-2------0-|-0-0-0-0-0-0-0-0-0-0-0-0-0-0-|-3----1----0-|
|-0-0-0-0-0-0-0-5----0-|-0-0-0-0-0-0-0-0-0-0-0-0-0-0-|-2----2----0-|
|-0-0-0-0-3-4-0-0----0-|-2-2-2-2-2-2-2-2-2-2-2-2-2-2-|-0----0----0-|


                                 1.
  G chord diagramGG
                                                TP
  E chord diagramEE S S S S S S S S S S S S S S   E chord diagramEE E chord diagramEE E chord diagramEE T T T T Q  +E  E chord diagramEE
|-3-3-3-------------------------|-3-3-3-3-3-3-3-3--(3)-3--||
|-2-2-2-2-2-2-2-2-2-2-2-2-2-2-2-|-2-2-2-2-2-2-2-2--(2)-0-o||
|-0-0-0-0-0-0-0-5-0-3-3-0-0-0-0-|-0-0-0-0-0-0-0-0--(0)-0-o||
|-0-0-0-0-3-4-0-0-0-0-0-0-3-4-0-|-0-0-0-0-0-0-0-0--(0)-0--||


                                  Mandolin Solo
  2.
                                   |-3-| |-3-| |-3-| |-3-| |-3-| |-3-|
  E chord diagramEE S S S S S S S S S S S S S S    S S S S S S S S S S S S S S S S S S E chord diagramEE S S
|-3-3-3-3-3-3-3-3-3-3-3---------||---------------------------------------------|
|-2-2-2-2-2-2-2-2-2-2-2---------||---------------------------------------------|
|-0-0-0-0-0-0-0-0-0-0-0-0-0-0-0-||-5p2-0-3p2-0-5p2-0-3p2-0-5p2-0-3p2-0-5-0-0---|
|-0-0-0-0-0-0-0-0-0-0-0-0-3-4-0-||-0-----0-----0-----0-----0-----0-----0-0-0---|


  |-3-| |-3-| |-3-| |-3-| |-3-| |-3-|
  S S S S S S S S S S S S S S S S S S E chord diagramEE S S
|-------------------------------------------|
|-------------------------------------------|
|-5p2-0-3p2-0-5p2-0-3p2-0-----0-----0-0-0-0-|
|-0-----0-----0-----0-----5h6---3h4---0-0-0-|


  |-3-| |-3-| |-3-| |-3-| |-3-| |-3-|
  S S S S S S S S S S S S S S S S S S E chord diagramEE S S
|--------------------------------------------|
|--------------------------------------------|
|-5p2-0-3p2-0-5p2-0-3p2-0-5p2-0-3p2-0-5-0-0--|
|-0-----0-----0-----0-----0-----0-----0-0-0--|


                                              C chord diagramCC
                                              TP TP TP TP
  |-3-| |-3-| |-3-| |-3-| |-3-| |-3-|
  S S S S S S S S S S S S S S S S S S E chord diagramEE S S   Q  Q  Q  Q
|---------------------------------------0-0-|-------------|
|---------------------------------------0-0-|-3--5--7--8--|
|-5p2-0-3p2-0-5p2-0-3p2-0-----0-----0-0-----|-2--3--5--7--|
|-0-----0-----0-----0-----5h6---3h4---0-----|-0--0--0--0--|


                      G chord diagramGG
   TP  TP  TP
   Q   Q   Q  E chord diagramEE S S   E chord diagramEE S S S S S S S S S S S S S S
|-------------------|---3-3-3-3-7-7-7-7-7-7-7-5-3-3-|
|-10--12--10--8-7-7-|---2-2-2-2-5-5-5-5-5-5-5-5-0-0-|
|--8--10---8--7-5-5-|-0-0-0-0-0-0-0-0-0-0-0-0-0-0-0-|
|--0---0---0--0-0-0-|-0-0-0-0-0-0-0-0-0-0-0-0-0-0-0-|


                                  D chord diagramDD
                                                TP TP
  E chord diagramEE S S S S S S S S S S S S S S   E chord diagramEE S S S S S S Q  Q
|-3-3-3-3-3-3-3-------------0-0-|-2-2-2-2-2-2-2-3--2--|
|-2-2-2-2-2-2-2-3-2-3-2-3-2-0-0-|-0-0-0-0-0-0-0-0--0--|
|-0-0-0-0-0-0-0-2-2-2-0-2-0-0-0-|-0-0-0-0-0-0-0-0--0--|
|-0-0-0-0-0-0-0-0-0-0-0-0-0-0-0-|-2-2-2-2-2-2-2-2--2--|


  C chord diagramCC    C7 chord diagramC7C7       G chord diagramGG
  TP   TP   TP
  H chord diagramHH    Q.   E chord diagramEE   E chord diagramEE S S S S S S S S S S S S S S
|-3----0------|-------------------------------|
|-3----1------|-------------------------------|
|-2----2----0-|-0-0-0-2-0---0-5-0-3-0-0-0---0-|
|-0----0----0-|-0-0-0-0-0-4-0-0-0-0-0-0-0-4-0-|


  E chord diagramEE S S S S S S S S S S S S S S   q  Q  H chord diagramHH      Wx7
|---3-3-3-3-3-3-3-3-3-3-3-3-3-3-|-3----------|--------|
|---2-2-2-2-2-2-2-2-2-2-2-2-2-2-|-2----------|--------|
|-0-0-0-0-0-0-0-0-0-0-0-0-0-0-0-|-0----------|--------|
|-0-0-0-0-0-0-0-0-0-0-0-0-0-0-0-|-0----------|--------|


  D chord diagramDD             C chord diagramCC                      G chord diagramGG
  TP
  H chord diagramHH.      E chord diagramEE E chord diagramEE   E chord diagramEE E chord diagramEE q  E chord diagramEE S S S S S S   E chord diagramEE S S S S S S E chord diagramEE S S S S S S
|-2-------2-0-|----------------------|---3-3-3-3-3-3-3-3-3-3-3-3-3-|
|-0-------0-0-|-3-3-3----------------|---2-2-2-2-2-2-2-2-2-2-2-2-2-|
|-0-------0-0-|-2-2-2--------0-0-0-0-|-0-0-0-0-0-0-0-0-0-0-0-0-0-0-|
|-2-------2-0-|-0-0-0----0-0-0-0-0-0-|-0-0-0-0-0-0-0-0-0-0-0-0-0-0-|


                                3rd Verse
                                 G chord diagramGG
  E chord diagramEE S S S S S S E chord diagramEE S S S S S S    E chord diagramEE S S S S S S E chord diagramEE S S S S S S
|-3-3-3-3-3-3-3-3-3-3-3-3-3-3-||---3-3-3-3-3-3-3-3-3-3-3-3-3-|
|-2-2-2-2-2-2-2-2-2-2-2-2-2-2-||---2-2-2-2-2-2-2-2-2-2-2-2-2-|
|-0-0-0-0-0-0-0-0-0-0-0-0-0-0-||-0-0-0-0-0-0-0-0-0-0-0-0-0-0-|
|-0-0-0-0-0-0-0-0-0-0-0-0-0-0-||-0-0-0-0-0-0-0-0-0-0-0-0-0-0-|


                                                       C chord diagramCC
                   TP TP TP TP   TP TP
  q  Q  Q  E chord diagramEE  E chord diagramEE    Q  Q  Q  Q    Q  Q  E chord diagramEE S S S S S S   E chord diagramEE E chord diagramEE q  Q  S S S S
|-3--------------|-------------|---------3-3-3-3-3-3-|-0-0-0-------0-0-0--|
|-2--------------|-2--3--5--3--|-2--3--5-5-5-5-5-5-5-|-3-3-3-------3-3-3--|
|-0----------(0)-|-0--0--0--0--|-0--0--0-0-0-0-0-0-0-|-2-2-2-------2-2-2--|
|-0----------(0)-|-0--0--0--0--|-0--0--0-0-0-0-0-0-0-|-0-0-0-------0-0-0--|


  C chord diagramCC             G chord diagramGG
  TP      TPTP
  H chord diagramHH.      E chord diagramEE E chord diagramEE   e S S q  H chord diagramHH      H chord diagramHH    Q  E chord diagramEE S S
|-0-------0---|-3-3-3-3-------|-----------0-0--|
|-1-------1-2-|-2-2-2-2-------|-----------0-0--|
|-2-------2-0-|-0-0-0-0-------|----------------|
|-0-------0-0-|-0-0-0-0-------|----------------|


  D chord diagramDD          C chord diagramCC                         G chord diagramGG
  TP
  W          E chord diagramEE S S E chord diagramEE S S S S S S S S S S   S S S S S S S S S S S S S S S S
|-2--------|-0-0-0-0-0-0-0-0-0-0-0-0-0-3-|-3-3-3-3-3-3-3-3-3-3-3-3-3-3-3-3--|
|-0--------|-3-3-3-3-3-3-1-1-1-1-1-1-1-2-|-2-2-2-2-2-2-2-2-2-2-2-2-2-2-2-2--|
|-0--------|-2-2-2-2-2-2-2-2-2-2-2-2-2-0-|-0-0-0-0-0-0-0-0-0-0-0-0-0-0-0-0--|
|-2--------|-0-0-0-0-0-0-0-0-0-0-0-0-0-0-|-0-0-0-0-0-0-0-0-0-0-0-0-0-0-0-0--|


                                    4th Verse
                                     G chord diagramGG
  S S S S S S S S S S S S S S S S    E chord diagramEE S S S S S S E chord diagramEE S S S S S S
|-3-3-3-3-3-3-3-3-3-3-3-3-3-3-3-3-||-3-3-3-3-3-3-3-3-3-3-3-3-3-3-|
|-2-2-2-2-2-2-2-2-2-2-2-2-2-2-2-2-||-2-2-2-2-2-2-2-2-2-2-2-2-2-2-|
|-0-0-0-0-0-0-0-0-0-0-0-0-0-0-0-0-||-0-0-0-0-0-0-0-0-0-0-0-0-0-0-|
|-0-0-0-0-0-0-0-0-0-0-0-0-0-0-0-0-||-0-0-0-0-0-0-0-0-0-0-0-0-0-0-|


  TP   TP TP   TP                                                TP   TP
  Q.   E chord diagramEE +Q.   E chord diagramEE   E chord diagramEE S S S S S S S S S S S S S S   E chord diagramEE S S S S S S Q.   E chord diagramEE
|-3----2-(2)---3-|-3-3-3-------------------------|-3-3-3--------------3-|
|-2----1-(1)---2-|-2-2-2-2-2-2-2-2-2-2-2-2-2-2-2-|-2-2-2-2-2-2-2------2-|
|-0----0-(0)---0-|-0-0-0-0-0-0-0-5-0-3-3-0-0-0-0-|-0-0-0-0-0-0-0-5----0-|
|-0----0-(0)---0-|-0-0-0-0-3-4-0-0-0-0-0-0-3-4-0-|-0-0-0-0-3-4-0-0----0-|


   E chord diagramEE  S S S S S S E chord diagramEE S S S S S S
|-(0)---------------------------|
|--3--3-3-3-3-3-3-3-3-3-3-3-3-3-|
|--2--2-2-2-2-2-2-2-2-2-2-2-2-2-|
|--0--0-0-0-0-0-0-0-0-0-0-0-0-0-|


              G chord diagramGG
  TP       TP TP
  H chord diagramHH.      +E  E chord diagramEE   E chord diagramEE S S S S S S S S S S S S S S
|-0-------(0)-3-|-3-3-3-------------------------|
|-1-------(1)-2-|-2-2-2-2-2-2-2-2-2-2-2-2-2-2-2-|
|-2-------(2)-0-|-0-0-0-0-0-0-0-5-0-3-3-0-0-0-0-|
|-0-------(0)-0-|-0-0-0-0-3-4-0-0-0-0-0-0-3-4-0-|


                     D chord diagramDD                                           G chord diagramGG
                TP   TP                                TP   TP   TP
  E chord diagramEE S S S S S S Q.   E chord diagramEE   E chord diagramEE S S S S S S E chord diagramEE S S S S S S   H chord diagramHH    Q.   E chord diagramEE
|-------3-3-3-3-3----2-|-2-2-2-2-2-2-2-2-2-2-2-2-0-0-|------0----3-|
|-2-2-2-0-0-0-0-2----0-|-0-0-0-0-0-0-0-0-0-0-0-0-0-0-|-3----1----2-|
|-0-3-0-0-0-0-0-0----0-|-0-0-0-0-0-0-0-0-0-0-0-0-0-0-|-2----2----0-|
|-0-0-0-0-0-0-0-0----2-|-2-2-2-2-2-2-2-2-2-2-2-2-2-2-|-0----0----0-|


  E chord diagramEE S S S S S S S S S S S S S S   E chord diagramEE S S S S S S S S S S S S S S
|-3-3-3-3-3-3-3-3-3-3-3-3-3-3-3-|-3-3-3-3-3-3-3-3-3-3-3-3-3-3-3-|
|-2-2-2-2-2-2-2-2-2-2-2-2-2-2-2-|-2-2-2-2-2-2-2-2-2-2-2-2-2-2-2-|
|-0-0-0-0-0-0-0-0-0-0-0-0-0-0-0-|-0-0-0-0-0-0-0-0-0-0-0-0-0-0-0-|
|-0-0-0-0-0-0-0-0-0-0-0-0-0-0-0-|-0-0-0-0-0-0-0-0-0-0-0-0-0-0-0-|


  TP   TP TP                                   TP   TP TP
  H chord diagramHH    Q  Q    E chord diagramEE S S S S S S S S S S S S S S   H chord diagramHH    Q  Q
|-3----5--6--|-7-7-7-7-7-7-7-7-7-7-7-7-7-7-7-|-3----5--6--|
|-2----3--4--|-5-5-5-5-5-5-5-5-5-5-5-5-5-5-5-|-2----3--4--|
|-0----0--0--|-0-0-0-0-0-0-0-0-0-0-0-0-0-0-0-|-0----0--0--|
|-0----0--0--|-0-0-0-0-0-0-0-0-0-0-0-0-0-0-0-|-0----0--0--|


                                                >
                                  TP TP TP TP   TP TP TP TP
  E chord diagramEE S S S S S S S S S S S S S S   Q  Q  Q  Q    Q  Q  Q  Q
|-7-7-7-7-7-7-7-7-7-7-7-7-7-7-7-|-7--7--7--7--|-7--7--7--7--||
|-5-5-5-5-5-5-5-5-5-5-5-5-5-5-5-|-5--5--5--5--|-5--5--5--5--||
|-0-0-0-0-0-0-0-0-0-0-0-0-0-0-0-|-0--0--0--0--|-0--0--0--0--||
|-0-0-0-0-0-0-0-0-0-0-0-0-0-0-0-|-0--0--0--0--|-0--0--0--0--||


   Outro
    G chord diagramGG
    TP TP TP TP   TP TP TP TP   TP TP TP TP   TP TP TP TP
    Q  Q  Q  Q    Q  Q  Q  Q    Q  Q  Q  Q    Q  Q  Q  Q
||--7--7--7--7--|-7--7--7--7--|-7--7--7--7--|-7--7--7--7----||
||o-5--5--5--5--|-5--5--5--5--|-5--5--5--5--|-5--5--5--5---o||
||o-0--0--0--0--|-0--0--0--0--|-0--0--0--0--|-0--0--0--0---o||
||--0--0--0--0--|-0--0--0--0--|-0--0--0--0--|-0--0--0--0----||


  G chord diagramGG
                                                          TP
  E chord diagramEE E chord diagramEE Q  H chord diagramHH      E chord diagramEE S S S S E chord diagramEE E chord diagramEE S S S S E chord diagramEE   S S S S S S S S H chord diagramHH
|-7-----------|---3-3-3-3-----0-0-0-0---|---3-3-3-3-3-3-3-3----|
|-5-----------|---2-2-2-2-----2-2-2-2---|---2-2-2-2-2-2-2-2----|
|-0-----------|---0-0-0-0-----3-3-3-3---|---0-0-0-0-0-0-0-3----|
|-0-----------|---0-0-0-0-----0-0-0-0---|---0-0-0-0-0-0-0-0----|


  e S S S e S S S S S S S S S   S S S S S S S S S S S S S S S S
|-3-3-3-3-3---0-0-0-0-0-0-----|---------------------------------|
|-2-2-2-2-2---2-2-2-2-2-2-----|---------------------------------|
|-0-0-0-0-0-0-3-3-3-3-3-3-0-0-|-0-5-5-0-5-0-3-5-x-x-x-5-5-0-0-3-|
|-0-0-0-0-0-0-0-0-0-0-0-0-0-0-|-0-0-0-0-0-0-0-0-x-x-x-0-0-0-0-0-|


  E chord diagramEE S S E chord diagramEE S S S S S S S S S S   E chord diagramEE S S E chord diagramEE S S S S S S S S S S
|-----------------------------|-----------------------------|
|-----------------------------|-----------------------------|
|-5-0-3-5-0-3-5-5---5-5-5-0-3-|-5-0-3-5-0-3-5-5---5-5-5-0-3-|
|-0-0-0-0-0-0-0-0-0-0-0-0-0-0-|-0-0-0-0-0-0-0-0-0-0-0-0-0-0-|


  E chord diagramEE S S E chord diagramEE S S S S S S S S S S   E chord diagramEE S S E chord diagramEE S S S S S S S S S S
|-----------------------------|-----------------------------|
|-----------------------------|-----------------------------|
|-5-0-3-5-0-3-5-5---5-5-5-0-3-|-5-0-3-5-0-3-5-5---5-5-5-0-3-|
|-0-0-0-0-0-0-0-0-0-0-0-0-0-0-|-0-0-0-0-0-0-0-0-0-0-0-0-0-0-|


  E chord diagramEE S S E chord diagramEE E chord diagramEE S S S S E chord diagramEE E chord diagramEE   H chord diagramHH    E chord diagramEE S S S S S S   E chord diagramEE S S E chord diagramEE S S S E chord diagramEE S +S  S S S
|-----------------------|--------------------|-------------------------------|
|-----------------------|--------------------|-------------------------------|
|-5-0-3-5-----0-0-3-5---|--------0-0-0-0-0-3-|-5-0-3-5-0-3-5-5-5-(5)-5-5-5---|
|-0-0-0-0-----0-0-0-0---|--------0-0-0-0-0-0-|-0-0-0-0-0-0-0-0-0-(0)-0-0-0---|


                          TP     TP      TPTP
  |-3-| |-3-| |-3-| |-3-|
  S S S S S S S S S S S S H chord diagramHH      H chord diagramHH.      E chord diagramEE E chord diagramEE
|-------------------------3----|-3-------3-3-|
|-------------------------2----|-2-------2-2-|
|-5p3-0-3p2-0-5p3-0-3p2-0-0----|-0-------0-0-|
|-0-----0-----0-----0-----0----|-0-------0-0-|


    E chord diagramEE S S S S S S S S S S S S S S   E chord diagramEE S S S S S S S S S S S S S S
||--3-3-3-------------------------|-3-3-3---------------------------||
||o-2-2-2-------------------------|-2-2-2--------------------------o||
||o-0-0-0-0-0-0-0-5-0-3-3-0-0-0-0-|-0-0-0-0-0-0-0-5-5-3-3-0-0-0-0--o||
||--0-0-0-0-3-4-0-0-0-0-0-0-3-4-0-|-0-0-0-0-3-4-0-0-0-0-0-0-3-4-0---||


                                  H chord diagramHH.=H
                                                                TP
  E chord diagramEE S S S S S S S S S S S S S S   E chord diagramEE E chord diagramEE S S S S S S S S S S S S   W
|-3-3-3-------------------------|-----------------------------|-3----*|
|-2-2-2-------------------------|-----------------------------|-2----*|
|-0-0-0-0-0-0-0-5-5-3-3-0-0-0-0-|-0-0-0-0-0-0-5-0-3-3-0-0-0-0-|-0----*|
|-0-0-0-0-3-4-0-0-0-0-0-0-3-4-0-|-0-0-0-3-4-0-0-0-0-0-0-3-4-0-|-0----*|


Duration Legend
---------------
W - whole; H chord diagramHH - half; Q - quarter; E chord diagramEE - 8th; S - 16th; T - 32nd; X - 64th; a - acciaccatura
+ - note tied to previous; . - note dotted; .. - note double dotted
Uncapitalized letters represent notes that are staccato (1/2 duration)
Irregular groupings are notated above the duration line
Duration letters will always appear directly above the note/fret number it represents the
duration for.  Duration letters with no fret number below them represent rests.  Multi-
bar rests are notated in the form Wxn, where n is the number of bars to rest for.  Low
melody durations appear below the staff

Tablature Legend
----------------
 h   - hammer-on
 p   - pull-off
 b   - bend
 pb  - pre-bend
 r   - bend release (if no number after the r, then release immediately)
 /\  - slide into or out of (from/to "nowhere")
 s   - legato slide
 S   - shift slide
  - natural harmonic
[n]  - artificial harmonic
n(n) - tapped harmonic
 ~   - vibrato
 tr  - trill
 T   - tap
 TP  - trem. picking
 PM  - palm muting
\n/  - tremolo bar dip; n = amount to dip
 \n  - tremolo bar down
 n/  - tremolo bar up
/n\  - tremolo bar inverted dip
 =   - hold bend; also acts as connecting device for hammers/pulls
 <>  - volume swell (louder/softer)
 x   - on rhythm slash represents muted slash
 o   - on rhythm slash represents single note slash

Misc Legend
-----------
 |  - bar
||  - double bar
||o - repeat start
o|| - repeat end
*|  - double bar (ending)
 :  - bar (freetime)
 $  - Segno
 &  - Coda
Tempo markers -  = BPM(8/16=s8/s16), where s8 = swing 8ths, s16 = swing 16ths

Other versions of Going To My Hometown

Going to my hometownChords

Comment this song and these guitar tabs

Do you have corrections, comments on the guitar tabs, thoughts about the song or a message to the author? Write them below.