Guitar Tabs Explorer
Rory Gallagher guitar tabs for Calling card

Calling Card tab


Be the first to rate

Calling Card tab by Rory Gallagher

Guitar tabs with lyrics

Print
CALLING CARD

As recorded by Rory Gallagher
(From the 1976 Album CALLING CARD)

Words and Music by Rory Gallagher

Transcribed by Slowhand


Gtr I (E chord diagramEE A chord diagramAA D chord diagramDD G chord diagramGG B chord diagramBB E chord diagramEE) - 'Rory Gallagher - Electric Guitar'


 Intro
  Q.=110
  N.C.
 12/8
  Gtr I
  Wx3
|--------|
|--------|
|--------|
|--------|
|--------|
|--------|


  H chord diagramHH.      Q  E chord diagramEE   +Q.     S S E chord diagramEE E chord diagramEE Q.   H chord diagramHH.
|------------3---(3)---|----------------------|
|----------------------|----------------------|
|------------5b7-(5)---|-5p3------------------|
|----------------------|----------------------|
|----------------------|----------------------|
|----------------------|----------------------|


  H chord diagramHH.      S S S S   +S  S S S S S E chord diagramEE   W
|-----------------------------------|------|
|-----------------------------------|------|
|-----------3-5-5b6r(5)p3h5-3-------|------|
|---------5-------------------5-0---|------|
|-----------------------------------|------|
|-----------------------------------|------|


                                      2:3 2:3
  Q.   a E chord diagramEE E chord diagramEE E chord diagramEE Q.   a E chord diagramEE E chord diagramEE E chord diagramEE   E chord diagramEE a E chord diagramEE E chord diagramEE e e e e E chord diagramEE E chord diagramEE E chord diagramEE
|---------------------------|-----------------------|
|----------6------------6---|-------6-8-8-8-8-8-8-8-|
|------5s7----------5s7-----|---5s7-----------------|
|---------------------------|-----------------------|
|---------------------------|-----------------------|
|---------------------------|-----------------------|


                               2:3
  Q     +E   Q.   E chord diagramEE E chord diagramEE    +S  S e e
|------------------------------------|
|-8b10r=(8)\--------8b10r(8)p6-------|
|------------------------------7-5---|
|------------------------------------|
|------------------------------------|
|------------------------------------|


                      |2:3| 2:3
  E chord diagramEE E chord diagramEE S   +S  S S E chord diagramEE E chord diagramEE E chord diagramEE S S S S S S S
|-------------------------------------|
|-------------------------------------|
|-3-5-5b6r(5)p3-----------------------|
|---------------5-------5-3---3-------|
|---------------------------5---5s3p1-|
|-------------------------------------|


  E chord diagramEE E chord diagramEE E chord diagramEE Q.   E chord diagramEE E chord diagramEE E chord diagramEE a E chord diagramEE E chord diagramEE E chord diagramEE   E chord diagramEE E chord diagramEE E chord diagramEE Q.   Q.   E chord diagramEE E chord diagramEE   +S  S
|--------------------------|-------------------3-----------|
|--------------------------|-------------------------------|
|--------------------------|-3-----------------5b6r(5)p3---|
|----------------------3-5-|-------------------------------|
|--------------1-3-3s5-----|-------------------------------|
|-3----------3-------------|-------------------------------|


  E chord diagramEE E chord diagramEE E chord diagramEE Q.   Q.   Q   S  S   E chord diagramEE  S  S E chord diagramEE  S  S  S  S E chord diagramEE Q.   Q.
|--------------------10----|---10------10----------------------|
|--------------------11h13-|---11h13---11h13p11s10-------------|
|-5------------------------|-----------------------------------|
|--------------------------|-----------------------------------|
|--------------------------|-----------------------------------|
|--------------------------|-----------------------------------|


  |-3--|
  S S  S  S  S E chord diagramEE Q.   E chord diagramEE S S  S  S  +E  S  S  S  S
|-----10-13p10--------------13p10-(10)-------------|
|---x---------------------x--------------11p10-----|
|-x---------------------x----------------------12--|
|--------------------------------------------------|
|--------------------------------------------------|
|--------------------------------------------------|


                                            ~~~~~~~
   S  S  S  E chord diagramEE S Q.   H chord diagramHH.         E chord diagramEE      +E   E chord diagramEE  +Q.   S S E chord diagramEE E chord diagramEE S  S  E chord diagramEE  E chord diagramEE
|----------------------------|------------------------------------------|
|-10-------------------------|------------------------------------------|
|----12p10-------------------|-12pb15r(12)-10-(10)-------------------10-|
|----------12----------------|-----------------------xp8-----8h10-12----|
|----------------------------|------------------------------------------|
|----------------------------|------------------------------------------|


   E chord diagramEE E chord diagramEE  E chord diagramEE E chord diagramEE  E chord diagramEE E chord diagramEE  E chord diagramEE E chord diagramEE  E chord diagramEE  E chord diagramEE  E chord diagramEE  E chord diagramEE
|----------------------------------|
|----------------------------------|
|-12---12---12---12---12-12-12-12--|
|----------------------------------|
|----------------------------------|
|----------------------------------|


                               1st & 3rd Verses
                             $
                                Gm7 chord diagramGm7Gm7     C7 chord diagramC7C7
   ~~~~~~~~~~~~~~
   Q.       +E   E chord diagramEE E chord diagramEE H chord diagramHH.         Q  E chord diagramEE Q  E chord diagramEE +H.
|----------------------------||---------3-(3)------|
|----------------------------||-6-------5-(5)------|
|-12b15====(12)r-------------||-3-------3-(3)------|
|----------------------------||-5------------------|
|----------------------------||---------3-(3)------|
|----------------------------||-3------------------|


  Gm7 chord diagramGm7Gm7     C7 chord diagramC7C7           Gm7 chord diagramGm7Gm7     C7 chord diagramC7C7
  Q  E chord diagramEE Q  E chord diagramEE +H.        Q  E chord diagramEE Q  E chord diagramEE +H.
|---------3-(3)------|---------3-(3)----|
|-6-------5-(5)------|-6-------5-(5)----|
|-3-------3-(3)------|-3-------3-(3)----|
|-5------------------|-5----------------|
|---------3-(3)------|---------3-(3)----|
|-3------------------|-3----------------|


  Gm7 chord diagramGm7Gm7     C7 chord diagramC7C7           Gm7 chord diagramGm7Gm7     C7 chord diagramC7C7
  Q  E chord diagramEE Q  E chord diagramEE +H.        Q  E chord diagramEE Q  E chord diagramEE +H.
|---------3-(3)------|---------3-(3)------|
|-6-------5-(5)------|-6-------5-(5)------|
|-3-------3-(3)------|-3-------3-(3)------|
|-5------------------|-5------------------|
|---------3-(3)------|---------3-(3)------|
|-3------------------|-3------------------|


  Gm7 chord diagramGm7Gm7     C7 chord diagramC7C7           Gm7 chord diagramGm7Gm7
  Q  E chord diagramEE Q  E chord diagramEE +H.        q  E chord diagramEE Q.   H chord diagramHH.
|---------3-(3)------|-----------------|
|-6-------5-(5)------|-6---------------|
|-3-------3-(3)------|-3---------------|
|-5------------------|-5---------------|
|---------3-(3)------|-----------------|
|-3------------------|-3---------------|


                 2nd & 4th Verses
                  Gm7 chord diagramGm7Gm7     C7 chord diagramC7C7           Gm7 chord diagramGm7Gm7     C7 chord diagramC7C7           Gm7 chord diagramGm7Gm7     C7 chord diagramC7C7
  W               Q  E chord diagramEE Q  E chord diagramEE +H.        Q  E chord diagramEE Q  E chord diagramEE +H.        Q  E chord diagramEE Q  E chord diagramEE +H.
|--------------||---------3-(3)------|---------3-(3)------|---------3-(3)----|
|--------------||-6-------5-(5)------|-6-------5-(5)------|-6-------5-(5)----|
|--------------||-3-------3-(3)------|-3-------3-(3)------|-3-------3-(3)----|
|--------------||-5------------------|-5------------------|-5----------------|
|--------------||---------3-(3)------|---------3-(3)------|---------3-(3)----|
|--------------||-3------------------|-3------------------|-3----------------|


  Gm7 chord diagramGm7Gm7     C7 chord diagramC7C7           Gm7 chord diagramGm7Gm7     C7 chord diagramC7C7           Gm7 chord diagramGm7Gm7     C7 chord diagramC7C7           N.C.
  Q  E chord diagramEE Q  E chord diagramEE +H.        Q  E chord diagramEE Q  E chord diagramEE +H.        Q  E chord diagramEE Q  E chord diagramEE +H.        W.
|---------3-(3)------|---------3-(3)------|---------3-(3)------|----------|
|-6-------5-(5)------|-6-------5-(5)------|-6-------5-(5)------|-6--------|
|-3-------3-(3)------|-3-------3-(3)------|-3-------3-(3)------|-5pb6=====|
|-5------------------|-5------------------|-5------------------|----------|
|---------3-(3)------|---------3-(3)------|---------3-(3)------|----------|
|-3------------------|-3------------------|-3------------------|----------|
                                                                 W.


                         Bridge
                          Cm7 chord diagramCm7Cm7     F chord diagramFF
  +H.         H chord diagramHH.          Q  E chord diagramEE Q   E chord diagramEE  +H.
|----------------------||----------------------|
|-(6)------------------||-8-------10-(10)------|
|-(5)r==(5)------------||-8-------10-(10)------|
|----------------------||-8-------10-(10)------|
|----------------------||----------8--(8)------|
|----------------------||-8--------------------|
  +Q.   +Q.   Q   H chord diagramHH


  Cm7 chord diagramCm7Cm7     F chord diagramFF              Cm7 chord diagramCm7Cm7     F chord diagramFF
  Q  E chord diagramEE Q   E chord diagramEE  +H.        Q  E chord diagramEE Q   E chord diagramEE  +H.
|----------------------|--------------------|
|-8-------10-(10)------|-8-------10-(10)----|
|-8-------10-(10)------|-8-------10-(10)----|
|-8-------10-(10)------|-8-------10-(10)----|
|----------8--(8)------|----------8--(8)----|
|-8--------------------|-8------------------|


           To Coda
  Cm7 chord diagramCm7Cm7     F chord diagramFF                   N.C.
                       Gtr I
                              |2:3|
  Q  E chord diagramEE Q   E chord diagramEE  +H.        Q.   E chord diagramEE   E chord diagramEE E chord diagramEE E chord diagramEE E chord diagramEE Q.     W
|----------------------|------3---3------------|------|
|-8-------10-(10)------|-----------------------|------|
|-8-------10-(10)------|------5b6-5-3----------|------|
|-8-------10-(10)------|--------------5--------|------|
|----------8--(8)------|-----------------------|------|
|-8--------------------|-----------------------|------|


                          |-----7-----|
  E chord diagramEE S   +S  S S +S  S E chord diagramEE E chord diagramEE S S S S S S S S S Q.
|------------------------------------------------|
|------------------------------------------------|
|---5b6r(5)-3------------------------------------|
|-------------5-(5)-------5p3---3----------------|
|-----------------------------5---5p3s1h3--------|
|------------------------------------------------|


                 Guitar Solo
                  N.C.
  W                S  S E chord diagramEE E chord diagramEE Q.   H chord diagramHH.
|--------------||-10-------------------|
|--------------||-11h13----------------|
|--------------||----------------------|
|--------------||----------------------|
|--------------||----------------------|
|--------------||----------------------|


  Q   E chord diagramEE E chord diagramEE  S  S E chord diagramEE  S  S E chord diagramEE  S  S Q.     Q   S  S  E chord diagramEE E chord diagramEE E chord diagramEE Q   S  S  E chord diagramEE E chord diagramEE E chord diagramEE
|----10---10------10------10---------|----10----10--------13p10--------|
|---------11h13---11h13---11h13------|----11h13-----------------13-----|
|----12------------------------------|---------------------------------|
|------------------------------------|---------------------------------|
|------------------------------------|---------------------------------|
|------------------------------------|---------------------------------|


  E chord diagramEE  S     +S   S  S Q.   Q   E chord diagramEE  E chord diagramEE E chord diagramEE E chord diagramEE
|---------------------------------------|
|---13b15r(13)-11-----------------------|
|-----------------12--------------------|
|----------------------------10-12------|
|---------------------------------------|
|---------------------------------------|


   E chord diagramEE E chord diagramEE E chord diagramEE  E chord diagramEE  E chord diagramEE   E chord diagramEE  Q.    S  S  S E chord diagramEE.   Q.    S  E chord diagramEE.  E chord diagramEE  E chord diagramEE  E chord diagramEE  E chord diagramEE  E chord diagramEE  E chord diagramEE  E chord diagramEE
|------------------------------------|---------------------------------------|
|-11-----11-10-----------------------|-------------------------------11b11.5-|
|--------------(12)------12p10-------|------10-----10----------10-12---------|
|------------------------------12----|------10h12--10----10-12---------------|
|------------------------------------|------10-----10-13---------------------|
|------------------------------------|---------------------------------------|


   S  S  S     +S   S     +S   S     +S   S     +E.  S  S  S  S E chord diagramEE Q.
|-----------------------------------------------------------------------|
|-----------------------------------------------------------------------|
|-12-12-12b14r(12)-12b14r(12)-12b14r(12)-12b14r(12)---------------------|
|---------------------------------------------------10-12p10h12---------|
|-----------------------------------------------------------------------|
|-----------------------------------------------------------------------|


  Q   S  S  +E   E chord diagramEE  E chord diagramEE.  E chord diagramEE S E chord diagramEE Q   E chord diagramEE       +S       +S   +Q     S      +S   E chord diagramEE E chord diagramEE H chord diagramHH.
|----15---------15---------------------|-----------------------------------------------|
|--------------------------------18b20r|=(18)b20==(18)-(18)r--18pb20r(18)-15-----------|
|----17h18-(18)-17h18--17--------------|-----------------------------------------------|
|--------------------------------------|-----------------------------------------------|
|--------------------------------------|-----------------------------------------------|
|--------------------------------------|-----------------------------------------------|


     ~~~~~~~~~~~~~
  E chord diagramEE  Q       +E    E chord diagramEE  E chord diagramEE  S     +S   S  E chord diagramEE S Q.
|-----------------------------------------------|
|---18b20===(18)r-18-15-------------------------|
|-----------------------17b18r(17)-15-----------|
|-------------------------------------17--------|
|-----------------------------------------------|
|-----------------------------------------------|


  E chord diagramEE  E chord diagramEE     +S       +S   +E   E chord diagramEE E chord diagramEE Q   E chord diagramEE    E chord diagramEE  E chord diagramEE    E chord diagramEE
|----------------------------------------------------|
|---18b20r(18)b20==(18)-(18)r--------18b20---18b20---|
|----------------------------------------------------|
|----------------------------------------------------|
|----------------------------------------------------|
|----------------------------------------------------|


                                               Piano Solo
                                                Am7 chord diagramAm7Am7     D chord diagramDD            Am7 chord diagramAm7Am7     D chord diagramDD
   E chord diagramEE    E chord diagramEE  E chord diagramEE    E chord diagramEE  E chord diagramEE    E chord diagramEE  E chord diagramEE     +E  E chord diagramEE Q.       Q  E chord diagramEE Q  E chord diagramEE +H.        Q  E chord diagramEE Q  E chord diagramEE +H.
|-------------------------------------------||---------------------|------------------|
|-18b20---18b20---18b20---18b20r(18)--------||o-5-------7-(7)------|-5-------7-(7)----|
|-------------------------------------------||--5-------7-(7)------|-5-------7-(7)----|
|-------------------------------------------||--5-------7-(7)------|-5-------7-(7)----|
|-------------------------------------------||o---------5-(5)------|---------5-(5)----|
|-------------------------------------------||--5------------------|-5----------------|


                      1.,2.
  Am7 chord diagramAm7Am7     D chord diagramDD            Am7 chord diagramAm7Am7     D chord diagramDD
  Q  E chord diagramEE Q  E chord diagramEE +H.        Q  E chord diagramEE Q  E chord diagramEE +H.       3x
|--------------------|---------------------||
|-5-------7-(7)------|-5-------7-(7)------o||
|-5-------7-(7)------|-5-------7-(7)-------||
|-5-------7-(7)------|-5-------7-(7)-------||
|---------5-(5)------|---------5-(5)------o||
|-5------------------|-5-------------------||


                       Bridge
 3.
  Am7 chord diagramAm7Am7     D chord diagramDD             Cm7 chord diagramCm7Cm7     F chord diagramFF
  Q  E chord diagramEE Q  E chord diagramEE +H.         Q  E chord diagramEE Q   E chord diagramEE  +H.
|--------------------||--------------------|
|-5-------7-(7)------||-8-------10-(10)----|
|-5-------7-(7)------||-8-------10-(10)----|
|-5-------7-(7)------||-8-------10-(10)----|
|---------5-(5)------||----------8--(8)----|
|-5------------------||-8------------------|


  Cm7 chord diagramCm7Cm7     F chord diagramFF              Cm7 chord diagramCm7Cm7     F chord diagramFF              Cm7 chord diagramCm7Cm7     F chord diagramFF
  Q  E chord diagramEE Q   E chord diagramEE  +H.        Q  E chord diagramEE Q   E chord diagramEE  +H.        Q  E chord diagramEE Q   E chord diagramEE  +H.
|----------------------|----------------------|--------------------||
|-8-------10-(10)------|-8-------10-(10)------|-8-------10-(10)----||
|-8-------10-(10)------|-8-------10-(10)------|-8-------10-(10)----||
|-8-------10-(10)------|-8-------10-(10)------|-8-------10-(10)----||
|----------8--(8)------|----------8--(8)------|----------8--(8)----||
|-8--------------------|-8--------------------|-8------------------||


 Guitar Solo
  N.C.
            ~~~~~~~~~~~~~~
                          |-3-|
  E chord diagramEE E chord diagramEE S    +S  +Q.   +E   E chord diagramEE E chord diagramEE E chord diagramEE S +S  S  S   S  S
|-------------------------3-----------------------|
|-------------------------3-6-3-------------------|
|-----5b7==(5)-(5)---(5)r-------5-(5)-3-----------|
|---------------------------------------(5)-(3)---|
|-------------------------------------------------|
|-------------------------------------------------|


  Q.   E chord diagramEE E chord diagramEE E chord diagramEE E chord diagramEE E chord diagramEE E chord diagramEE E chord diagramEE E chord diagramEE E chord diagramEE   E chord diagramEE E chord diagramEE E chord diagramEE S S E chord diagramEE E chord diagramEE E chord diagramEE E chord diagramEE S    +S  S S S S S S
|------------------------|-------------------------------------------|
|--------3---3-----3-----|---3---------------------------------------|
|--------5h6-5-----5h6---|---5h6---5---3---3-5b6==(5)r5-3-5----------|
|------------------------|---------------5------------------x-5-5p===|
|------------------------|-------------------------------------------|
|------------------------|-------------------------------------------|


  E chord diagramEE E chord diagramEE E chord diagramEE E chord diagramEE E chord diagramEE S S S S E chord diagramEE E chord diagramEE S S E chord diagramEE  S S
|----------------------------------|
|----------------------------------|
|---------x------------------------|
|-3---------5p3h5p3h5--------------|
|-------------------------3-5\-----|
|--------------------------------1h|


                                               ~~~~~~~
  E chord diagramEE E chord diagramEE E chord diagramEE E chord diagramEE S E chord diagramEE. E chord diagramEE Q  +E  S S E chord diagramEE   Q.   E chord diagramEE S S E chord diagramEE E chord diagramEE Q  +Q.
|-----------------------------|--------------------------|
|-----------------------------|--------------------------|
|--------------3--------------|--------------3-----------|
|----------------5--(5)-0h5---|------------5---5--(5)----|
|---------3h5-----------------|--------3h5---------------|
|-3---------------------------|--------------------------|


                    ~~~~~~~~
  Q.   E chord diagramEE S S E chord diagramEE S S +Q   +Q   S   +S
|------------------------------------|
|----------------------------5---(5)-|
|--------------3-------------5b6r(5)-|
|----------------5-(5)--(5)----------|
|--------3h5-------------------------|
|------------------------------------|


                         Guitar Solo
      D chord diagramDD.S. al Coda     &
                          N.C.
  S S E chord diagramEE E chord diagramEE Q.   H chord diagramHH.         Q  S S E chord diagramEE S S E chord diagramEE S S E chord diagramEE E chord diagramEE Q.
|----------------------||----3-----3-------------------|
|----------------------||----3-----3-------------------|
|-3--------------------||----5h6---5h6---5p3-----------|
|---5------------------||--------------------5---------|
|----------------------||------------------------------|
|----------------------||------------------------------|


              ~~~~~~~~~~
  E chord diagramEE E chord diagramEE    +E  +Q.   +Q.    E chord diagramEE S    +S  +S  S
|------------------------------------------|
|---6b8==(6)-(6)---(6)r--------------------|
|-------------------------7-5b6==(5)r(5)p3-|
|------------------------------------------|
|------------------------------------------|
|------------------------------------------|


  S S E chord diagramEE E chord diagramEE Q.   H chord diagramHH.        E chord diagramEE E chord diagramEE    +E  +Q.   +Q.   S S E chord diagramEE E chord diagramEE
|----------------------|---------------------------------|
|----------------------|---6b8==(6)-(6)r==(6)---3s8------|
|-5p3------------------|---------------------------------|
|-----5----------------|---------------------------------|
|----------------------|---------------------------------|
|----------------------|---------------------------------|


   E chord diagramEE E chord diagramEE E chord diagramEE  E chord diagramEE E chord diagramEE  E chord diagramEE      +Q    +S   S  E chord diagramEE E chord diagramEE E chord diagramEE   Q.   E chord diagramEE  S  S  E chord diagramEE Q   S  S  e  e  e
|-----------------------------------------|-----------------------------------|
|-11-----13---13pb15r(13)--(13)p11--------|-----------------------------------|
|----------------------------------12-----|--------12p10----------------------|
|-----------------------------------------|--------------12----12-10----10-12-|
|-----------------------------------------|--------------------------13-------|
|-----------------------------------------|-----------------------------------|


   e  e  S      +S   +S       +S   +S       +E.  +E   E chord diagramEE E chord diagramEE Q.
|--------------------------------------------------------------|
|--------------------------------------------------------------|
|-10-12-12b15==(12)r(12)b15==(12)r(12)b15==(12)r(12)\----------|
|--------------------------------------------------------------|
|--------------------------------------------------------------|
|--------------------------------------------------------------|


  Q.   E chord diagramEE  S  S E chord diagramEE Q   E chord diagramEE  E chord diagramEE E chord diagramEE E chord diagramEE
|-----------------------------|
|-------------------11-13-----|
|--------10s12----------------|
|-----------------------------|
|-----------------------------|
|-----------------------------|


   S     +S  E chord diagramEE E chord diagramEE  E chord diagramEE E chord diagramEE E chord diagramEE Q.    E chord diagramEE E chord diagramEE E chord diagramEE   Q.    S  S E chord diagramEE E chord diagramEE H chord diagramHH.
|-13----(13)-----------------13-----|----------------------|
|-13b14-(13)-----11-----------------|------11h13-----------|
|----------------------------12-----|----------------------|
|-----------------------------------|----------------------|
|-----------------------------------|----------------------|
|-----------------------------------|----------------------|


   S   S  E chord diagramEE E chord diagramEE Q   S   S  Q.    S  S E chord diagramEE E chord diagramEE   Q   S  S Q.   Q   E chord diagramEE  E chord diagramEE E chord diagramEE E chord diagramEE
|-13-(13)--------13-(13)----------------|----------------------------|
|----------------10h=11-----------------|----------------------------|
|-10h=12----------------------10h12-----|------------------10-12-----|
|---------------------------------------|----10h12-------------------|
|---------------------------------------|----------------------------|
|---------------------------------------|----------------------------|


  Q   S      S   E chord diagramEE E chord diagramEE E chord diagramEE  E chord diagramEE    E chord diagramEE E chord diagramEE  S  S E chord diagramEE E chord diagramEE
|--------------------------------------------|
|---------------11---------------------------|
|----11b12==11r--------11b12-----11h12-------|
|--------------------------------------------|
|--------------------------------------------|
|--------------------------------------------|


  E chord diagramEE  S   S      +S   +S   S  S  S  E chord diagramEE S Q.   S  S  S S  a  E chord diagramEE
|-----------------------------------------------------------|
|-------13b15==(13)r(13)-11-13p11---------------------------|
|---------------------------------12----------10---------10-|
|---(0)---------------------------------------10h12---10h12-|
|-----------------------------------------------------------|
|-----------------------------------------------------------|


   E chord diagramEE  E chord diagramEE  E chord diagramEE Q.   Q   E chord diagramEE  E chord diagramEE E chord diagramEE E chord diagramEE    E chord diagramEE  S  S E chord diagramEE Q.   Q.   Q   S  S
|----------------------------|----------------------------------|
|----------------------------|----11----------------------------|
|---------------------10-----|-12----12----------------10h12----|
|-10---------------12--------|----------------------------------|
|----13-10-------------------|----------------------------------|
|----------------------------|----------------------------------|


   E chord diagramEE  E chord diagramEE  E chord diagramEE Q.   H chord diagramHH.        H chord diagramHH.      Q.   E chord diagramEE  S  E chord diagramEE.
|-----------------------|----------------15-----|
|-11--------------------|-----------------------|
|----12-12--------------|----------------17-18--|
|-----------------------|-----------------------|
|-----------------------|-----------------------|
|-----------------------|-----------------------|


   E chord diagramEE E chord diagramEE  E chord diagramEE Q.   H chord diagramHH.        H chord diagramHH.      Q   E chord diagramEE  S      +S   +Q
|----------------------|---------------18b20==(18)-(18)r----|
|----------------------|------------15----------------------|
|-17-x-----------------|------------------------------------|
|------17--------------|------------------------------------|
|----------------------|------------------------------------|
|----------------------|------------------------------------|


   ~~~
   Q.   Q.   H chord diagramHH.        H chord diagramHH.      Q.   Q   S     +S
|-18-----------------|----------------------------|
|--------------------|-----------------18b20-(18)-|
|--------------------|----------------------------|
|--------------------|----------------------------|
|--------------------|----------------------------|
|--------------------|----------------------------|


  E chord diagramEE  S     +S  E chord diagramEE  S     +S  E chord diagramEE  S      +S   +E       +E   +E   S  S E chord diagramEE E chord diagramEE
|----------------------------------------------------------------------|
|---18b20-(18)---18b20-(18)---18b20==(18)r(18)b20==(18)r(18)-----------|
|------------------------------------------------------------19-17-----|
|----------------------------------------------------------------------|
|----------------------------------------------------------------------|
|----------------------------------------------------------------------|


  H chord diagramHH.      Q   E chord diagramEE     +E      +Q      Q   E chord diagramEE Q.   H chord diagramHH.
|--------------------------------|---------------------|
|------------18b20r(18)b20-(18)--|-20\-----------------|
|--------------------------------|---------------------|
|--------------------------------|---------------------|
|--------------------------------|---------------------|
|--------------------------------|---------------------|


  H chord diagramHH.      Q   S     +S  E chord diagramEE  S     +S  E chord diagramEE
|---------------------------------------|
|------------18b20-(18)---18b20-(18)----|
|---------------------------------------|
|---------------------------------------|
|---------------------------------------|
|---------------------------------------|


   E chord diagramEE     +S   S  E chord diagramEE Q.   H chord diagramHH.
|-------------------------------|
|-18b20r(18)p15-----------------|
|---------------17--------------|
|-------------------------------|
|-------------------------------|
|-------------------------------|


  H chord diagramHH.      Q   S     +S  E chord diagramEE  S     +S  E chord diagramEE    E chord diagramEE     +S   S  E chord diagramEE Q.   H chord diagramHH.
|--------------------------------------|-----------------------------|
|------------18b20-(18)---18b20-(18)---|-18b20r(18)p15---------------|
|--------------------------------------|---------------17------------|
|--------------------------------------|-----------------------------|
|--------------------------------------|-----------------------------|
|--------------------------------------|-----------------------------|


                          |--4:3---|
  Q.   Q   S  S E chord diagramEE  S  S E chord diagramEE E chord diagramEE  E chord diagramEE  E chord diagramEE  E chord diagramEE
|------------------------------------|
|------------------------------------|
|---------15------15--------------15-|
|---------15h17---15h17--------------|
|---------------------------15-17----|
|------------------------------------|


                                      ~~~~~~~~
   |--4:3---|
   E chord diagramEE  E chord diagramEE  E chord diagramEE  E chord diagramEE  S  E chord diagramEE     +E   S  S  S  Q   +E   S  E chord diagramEE  S    E chord diagramEE E chord diagramEE E chord diagramEE Q   E chord diagramEE   Q.    E chord diagramEE E chord diagramEE E chord diagramEE
|------------------------------------------------------|-----------------------------|
|------------------------------------------------------|-----------15-(15)---15------|
|----15----15-17-17b19r(17)-15-17p15h17--(17)-15-17-15-|-----------17h=18----17------|
|-17----17---------------------------------------------|-17--------------------------|
|------------------------------------------------------|-----------------------------|
|------------------------------------------------------|-----------------------------|


   S   S   +Q    E chord diagramEE E chord diagramEE E chord diagramEE  S   S   +Q    E chord diagramEE E chord diagramEE  E chord diagramEE
|-15-(15)-(15)--15-----15-(15)-(15)--15------|
|-15-(15)-(15)--15-----15-(15)-(15)--15------|
|-17h=18--(18)--17-----17h=18--(18)--17------|
|-----------------------------------------17-|
|--------------------------------------------|
|--------------------------------------------|


   Q    E chord diagramEE   E chord diagramEE E chord diagramEE  E chord diagramEE  E chord diagramEE   Q    E chord diagramEE E chord diagramEE  E chord diagramEE    E chord diagramEE   Q    E chord diagramEE E chord diagramEE  E chord diagramEE  E chord diagramEE   Q    E chord diagramEE E chord diagramEE  E chord diagramEE
|-15--(15)-15------15-(15)--15------|-15-(15)--15------15-(15)--15-------|
|-15--(15)-15------15-(15)--15------|-15-(15)--15------15-(15)--15-------|
|-17h==18--17------17h=18---17------|-17h=18---17------17h=18---17-------|
|---------------17---------------17-|---------------17---------------17--|
|-----------------------------------|------------------------------------|
|-----------------------------------|------------------------------------|


   E chord diagramEE   Q    E chord diagramEE E chord diagramEE  E chord diagramEE  E chord diagramEE   Q    E chord diagramEE E chord diagramEE  E chord diagramEE    E chord diagramEE  Q   Q.    E chord diagramEE E chord diagramEE E chord diagramEE Q.
|-15-(15)--15------15-(15)--15------|--------------------------|
|-15-(15)--15------15-(15)--15------|--------------------------|
|-17h=18---17------17h=18---17------|-17-18--17----------------|
|---------------17---------------17-|--------------17----------|
|-----------------------------------|--------------------------|
|-----------------------------------|--------------------------|


  Q   S   S  Q.   Q   S   S  E chord diagramEE  S  S  S  S
|----15-(15)---------15-(15)----------------|
|----15-(15)---------15-(15)----------------|
|----17h=18----------17h=18----18s17-15-----|
|---------------------------------------17--|
|-------------------------------------------|
|-------------------------------------------|


   S  S  S  S E chord diagramEE Q.   Q   E chord diagramEE     +Q.
|------------------------------------|
|-----------------------18b20-(18)---|
|-15h17p15---------------------------|
|----------17------------------------|
|------------------------------------|
|------------------------------------|


  E chord diagramEE  E chord diagramEE  E chord diagramEE  E chord diagramEE  S  S  E chord diagramEE  S  S  S  S  S  S      +S   +S   E chord diagramEE  E chord diagramEE    S  S  S  E chord diagramEE.  +Q.   Q.    E chord diagramEE E chord diagramEE  E chord diagramEE
|---15----15-18p15----15------------------------------------|----------------------------------|
|------18----------18----18p15----15------------------------|--------------------------17------|
|------------------------------17----17b19==(17)r(17)-15----|-15h17p15-----------------17---15-|
|--------------------------------------------------------17-|----------17--(17)----------------|
|-----------------------------------------------------------|----------------------------------|
|-----------------------------------------------------------|----------------------------------|


   E chord diagramEE E chord diagramEE E chord diagramEE Q.    S  S E chord diagramEE  S      +S   +S       +S   +E   E chord diagramEE
|-------------------------------------------------------|
|-------------------------------------------------------|
|---------------------17b19==(17)r(17)b19==(17)r(17)----|
|-17----------15-17----------------------------------15-|
|-------------------------------------------------------|
|-------------------------------------------------------|


   ~~~
   H chord diagramHH.      H chord diagramHH.        H chord diagramHH.      Q.   Q   E chord diagramEE
|------------------|---------------------||
|------------------|---------------------||
|------------------|---------------------||
|-17---------------|---------------------||
|------------------|---------------------||
|------------------|-----------------(3)-||


 Outro
  Freely Q.=98
  N.C.
  E chord diagramEE E chord diagramEE   E chord diagramEE E chord diagramEE E chord diagramEE   E chord diagramEE a E chord diagramEE E chord diagramEE  E chord diagramEE   S      +e    S      +e
|-----------------------------------------------------:
|---6b8-6-3-----------6-[8]-[8]b10-([8])-[8]b10-([8])-:
|-----------5b7-3-5s7---------------------------------:
|-----------------------------------------------------:
|-----------------------------------------------------:
|-----------------------------------------------------:


   S      +e    S      +e    S       +S    +E   S S E chord diagramEE E chord diagramEE S S S S S S S S
|-----------------------------------------------------------------------:
|-[8]b10-([8])-[8]b10-([8])-[8]b10==([8])r([8])-6-----------------------:
|-------------------------------------------------7-------3-5p3h5p3h5p3-:
|-------------------------------------------------------5---------------:
|-----------------------------------------------------------------------:
|-----------------------------------------------------------------------:


                                    Gm chord diagramGmGm/A chord diagramAA
  S S S S S S S S S S S S H chord diagramHH.         E chord diagramEE  E chord diagramEE E chord diagramEE Q.   H chord diagramHH.
|---------------------------------:--------------------*|
|---------------------------------:--3\----------------*|
|-5p3h5p3h5p3-5p3h5p3h5p3h5-------:--3\----------------*|
|---------------------------------:--5\----------------*|
|---------------------------------:-(0)----------------*|
|---------------------------------:--------------------*|


Duration Legend
---------------
W - whole; H chord diagramHH - half; Q - quarter; E chord diagramEE - 8th; S - 16th; T - 32nd; X - 64th; a - acciaccatura
+ - note tied to previous; . - note dotted; .. - note double dotted
Uncapitalized letters represent notes that are staccato (1/2 duration)
Irregular groupings are notated above the duration line
Duration letters will always appear directly above the note/fret number it represents the
duration for.  Duration letters with no fret number below them represent rests.  Multi-
bar rests are notated in the form Wxn, where n is the number of bars to rest for.  Low
melody durations appear below the staff

Tablature Legend
----------------
 h   - hammer-on
 p   - pull-off
 b   - bend
 pb  - pre-bend
 r   - bend release (if no number after the r, then release immediately)
 /\  - slide into or out of (from/to "nowhere")
 s   - legato slide
 S   - shift slide
  - natural harmonic
[n]  - artificial harmonic
n(n) - tapped harmonic
 ~   - vibrato
 tr  - trill
 T   - tap
 TP  - trem. picking
 PM  - palm muting
\n/  - tremolo bar dip; n = amount to dip
 \n  - tremolo bar down
 n/  - tremolo bar up
/n\  - tremolo bar inverted dip
 =   - hold bend; also acts as connecting device for hammers/pulls
 <>  - volume swell (louder/softer)
 x   - on rhythm slash represents muted slash
 o   - on rhythm slash represents single note slash

Misc Legend
-----------
 |  - bar
||  - double bar
||o - repeat start
o|| - repeat end
*|  - double bar (ending)
 :  - bar (freetime)
 $  - Segno
 &  - Coda
Tempo markers -  = BPM(8/16=s8/s16), where s8 = swing 8ths, s16 = swing 16ths

Comment this song and these guitar tabs

Do you have corrections, comments on the guitar tabs, thoughts about the song or a message to the author? Write them below.