Guitar Tabs Explorer
Rory Gallagher guitar tabs for As the crow flies

As The Crow Flies tab


5 / 5 [1 vote]

As The Crow Flies tab by Rory Gallagher

Guitar tabs with lyrics

Print
Playing Notes:

/ - slide up
\ - slide down
s - slide between notes
h - hammer on
p - pull off
~ - vibrato

played in Open D chord diagramDD (D chord diagramDD A chord diagramAA D chord diagramDD F# chord diagramF#F# A chord diagramAA D chord diagramDD from low to high)


The following chords are played throughout the verses


   D chord diagramDD   E chord diagramEE   F chord diagramFF   G chord diagramGG   A chord diagramAA   D12 chord diagramD12D12

|--0---2---3---5---7---12--|
|--0---2---3---5---7---12--|
|--0---2---3---5---7---12--|
|--0---2---3---5---7---12--|
|--0---2---3---5---7---12--|
|--0---2---3---5---7---12--|


Intro:
D chord diagramDD-|--------0--/4-/4---4--2--0-----------------0--/5--\3--0--------------------|
A chord diagramAA-|-0--/2----------------------3--/5---0--/2----------------0-/3-0--/5-5-5-5--|
F#| chord diagramF#|F#|---------------------------------------------------------------------------|
D chord diagramDD-|---------------------------------------------------------------------------|
A chord diagramAA-|---------------------------------------------------------------------------|
D chord diagramDD-|---------------------------------------------------------------------------|


|--------------------------12-12-12-12-12-12\------12-\10-----12-\10--------|
|-x-times-5-5s3p0---10-/12---------------------/12--------/12--------10-/12-|
|---------------------------------------------------------------------------|
|---------------------------------------------------------------------------|
|---------------------------------------------------------------------------|
|---------------------------------------------------------------------------|


			       (play a picking pattern)
|-------------------------------3-----2-----5---7---5-----------------------|
|-\10---------------------------3-----2-----5---7---5-----------------------|
|-----/12--/12-/12--------------3-----2-----5---7---5-----------------------|
|------------------/12-/12\-----3-----2-----5---7---5-------0--/5-/5-/3-0---|
|-------------------------------3-----2-----5---7---5-----------------------|
|-------------------------------------------------------/3------------------|


|---------------------------------------------------------------------------|
|---------------------------------------------------------------------------|
|---------------------------------------------------------------------------|
|-------0---------0--/4-/4--2--0---------0--/4-/4----------0--/4-/4--2-0----|
|-0-/3------0-/2-------------------0-/2--------------0-/2-------------------|
|---------------------------------------------------------------------------|
	    Ah ah ah ah ah  ah ah  ah ah ah ah ah    ah ah ah  ah ah ahah


|-----------------------------------------0-/4------------------------------|
|-----------------------------------0-/2------------------------------------|
|---------------------------------------------------------------------------|
|-------0-------------------------------------------------------------------|
|-0-/2----------------------------------------------------------------------|
|---------------------------------------------------------------------------|
  ah ah ah  as the crow flies baby             will I ain't so far from you


|-------0-/5-\3--0-----------------------------------12-12-12-12-11-11-10-10|
|-0-/2-------------0--3-/5-----------------------/12------------------------|
|---------------------------------------------------------------------------|
|---------------------------------------------------------------------------|
|---------------------------------------------------------------------------|
|---------------------------------------------------------------------------|
                           as the crow flies baby


|---------------------------------------------------------------------------|
|--------------------------------------------------------------7------------|
|-------------------------------------------------------0------7------------|
|-------------------------------------0-/5-\3--0---------------7------------|
|-------------------------------0-/3--------------0-/3---------7------------|
|---------------------------------------------------------------------------|
  will I ain't so far from you                            but since I don't


|---------------------------------------------------------------------------|
|------------5---7----------5-------------------------------5---------------|
|------------5---7----------5------------------------------5----------------|
|------------5---7----------5-----------------------------5-----------------|
|------------5---7----------5----------------------------5------------------|
|-------------------------------------------------------5-------------------|
  have wings       I can't get home as fast as I want to      hm hm hm hm


|------------------------------------------------------------|
|-------------------------------------------/3---------------|
|-----------------------------------------3-----3------------|
|-----0--------0--/5~--5s3p0-/3/3-0--0-/3---------3-0-----0--|
|--------0-/3------------------------------------------------|
|-/3---------------------------------------------------/3----|


D chord diagramDD  F chord diagramFF  D chord diagramDD  F chord diagramFF  D chord diagramDD  F chord diagramFF  D chord diagramDD


As the crow flies baby

	G chord diagramGG        F chord diagramFF        D chord diagramDD  G chord diagramGG F chord diagramFF  D chord diagramDD
will I ain't so far from you

	 G chord diagramGG
as the crow flies baby

			  D chord diagramDD  G chord diagramGG F chord diagramFF D chord diagramDD D12 chord diagramD12D12
will I ain't so far from you

      A chord diagramAA                       G chord diagramGG A chord diagramAA
but since I don't have wings

	 G chord diagramGG                            D chord diagramDD   G chord diagramGG F chord diagramFF  D chord diagramDD
I can't get home as fast as I want to


In a dream last night
where I heard you call my name
in a dream last night
where I heard you call my name
well, I took it as an omen
and I jumped on the very first weight train
Yeah, as the crow flies


Solo:
|-----------------------------------------------------------------------0-0-|
|---------------------------------------------------------------------------|
|---------------0-0----------------0-0--------------------------------------|
|-------0-2-s-4------------0-2-s-4------------0-2-s-4--0-h/4--0-h/4--0------|
|-0-h-2--------------0-h-2--------------0-h-2-------------------------------|
|---------------------------------------------------------------------------|


|--------0-2-s-4--0-0----------------0-0-------0-2-s-4--0-0-----------------|
|--0-h-2---------------------------------0-h-2------------------------------|
|---------------------------------------------------------------------------|
|---------------------------0-2-s-4--------------------------------0-2-s-4--|
|---------------------0-h-2----------------------------------0-h-2----------|
|---------------------------------------------------------------------------|


|-0-0-/12-12-12-12-/12\----------------0-0-/12-12-12-12-/12\----------------|
|-0-0-/12-12-12-12-/12\----------------0-0-/12-12-12-12-/12\----------------|
|---------------------------------------------------------------------------|
|---------------------------------------------------------------------------|
|---------------------------------------------------------------------------|
|------------------------0-/3--0-/3--0------------------------0-/3--0-/3--0-|


|-0-0-------0-2-s-4--0-h/4--0-h/4--0-0-0-0-/7p0-/5p0-/4p0-/2p0-/4p0-/5p0-/7-|
|-----0-h-2-----------------------------------------------------------------|
|---------------------------------------------------------------------------|
|---------------------------------------------------------------------------|
|---------------------------------------------------------------------------|
|---------------------------------------------------------------------------|


|-0-0-0-0-/7p0-/5p0-/4p0-/2p0-/4p0-/5p0-/7-0-0-0-0---0-0-/7--0-0-/7--0-0-/7-|
|---------------------------------------------------------------------------|
|---------------------------------------------------------------------------|
|---------------------------------------------------------------------------|
|---------------------------------------------------------------------------|
|---------------------------------------------------------------------------|


|-0-0-/7--5p0-5p0-5p0-5p0---------------------------------------------------|
|-------------------------/5---/3-3---0--/3--0------------------------------|
|-------------------------/5---/3-3---0--/3--0------------------------------|
|-------------------------/5---/3-3---0--/3--0---0-/3--0-/3--0--------------|
|-------------------------/5---/3-3---0--/3--0---0-/3--0-/3--0--------/3--0-|
|------------------------------------------------0-/3--0-/3--0--------------|
                                                               (ahahah)


|---------------------------------------------------------------------------|
|---------------------------------------------------------------------------|
|---------------------------------------------------------------------------|
|----------------------0---/5-\3--0----0--/5-\3--0----0--/5-\3--0----0------|
|-/3--0--/3--0-/3-0-/3--------------/3-------------/3-------------/3--------|
|-----------------------------------------------------------------------0---|
                                                          ah ah ahahah


|-----------------------------------------------------|
|--/5-5--\3---0---0--0--0-----/5-5--\3---0---0--0--0--|
|--/5-5--\3---0---0--0--0-----/5-5--\3---0---0--0--0--|
|--/5-5--\3---0---0--0--0-----/5-5--\3---0---0--0--0--|
|--/5-5--\3---0---0--0--0-----/5-5--\3---0---0--0--0--|
|-----------------------------------------------------|

harmonica solo ...


Well, you don't know baby
how I miss you sweet caress
well, you don't know baby
how I miss you sweet caress
when I'm in your lovin' arms
I swear I make my very best

|-------------------------------------------------|
|-----12----------12----------12----------12------|
|-/12----12\--/12----12\--/12----12\--/12----12\--|
|-------------------------------------------------|
|-------------------------------------------------|
|-------------------------------------------------|

As the crow flies baby
that's how I'm on my way
as the crow flies baby
I'm on my way

|--------------------------|
|--------------------------|
|--------------------------|
|------0-/4-\2-0--------0--|
|-0-/2------------0-2-0----|
|--------------------------|
  ah ahahah ah ah ahahahah


but don't stop runnin'
I can get home for the break of day
get home for the break of day ...

picking over the chords G chord diagramGG F chord diagramFF G chord diagramGG F chord diagramFF G chord diagramGG F chord diagramFF E chord diagramEE D chord diagramDD 2x

Outro:
|--------------12-----------------------------0-------0-/4---\2-0-----------|
|-----12-14-12----/14-12------12-14-12-----------0-/2-------------/5-/3-0---|
|-/12---------------------/12----------/12~---------------------------------|
|---------------------------------------------------------------------------|
|---------------------------------------------------------------------------|
|---------------------------------------------------------------------------|

|----------/12------------|
|--------------12---------|
|-----------------12------|
|-----0--------------/12--|
|-------------------------|
|-/3----------------------|

Comment this song and these guitar tabs

Do you have corrections, comments on the guitar tabs, thoughts about the song or a message to the author? Write them below.