Search tabs and chords

Browse bands and artists

A B C D E F G H I J K L M N O P Q R S T U V W X Y Z #

Log in

[ Register here | Forgot password ]

Guitar Tabs Explorer
Print

Guitar tabs with lyrics:

Ain't Too Good tab by Rory Gallagher

  • Tuning: Standard
Rory Gallagher - Ain't too good   (Against The Grain)

| Dm       Gm        | C        F

| Bb      Bb/A       | A7sus4 A7

| Dm                 | Bb       Am
 Well, it ain't too good the way you treat your man
 It's less than good it sure ain't kind
 It's your mistake you'll see in time

| Bb      C          | Dm
 When     I'm       gone

| Bb      C          | Am
 When     I'm       gone



| Dm                 | Bb       Am
 Well, it's been so long since I felt that glow
 The flame was bright but it's burning low
 I should be gone but I'm slow to go

| Bb      C          | Dm
  Serves  me        right

| Bb      C          |
   Serves     me..



| A        Dm        |
It doesn't seem clear,

| Gm          C      | A7sus4 A7
What happens from here and now,

| Dm          Gm     | C        F
You've called the tune, but maybe soon,

| Bb          Bb/A   | A7sus4 A7
Someone must pay for the   piper.

Interlude
Dm                           Bb        Am

E|10p8|10s------------------------|-----------------10p8|
B|----|---------------------------|-8b10-8-6-5----------|
G|----|-------7p5-7---------------|---------------------|
D|----|---------------3s5-3-5-3-0-|---------------------|
A|----|---------------------------|---------------------|
E|----|---------------------------|---------------------|

Dm                         Bb        Am

E|10s------------------------|-----------------10p8|
B|---------------------------|-8b10-8-6-5----------|
G|-------7p5-7---------------|---------------------|
D|---------------3s5-3-5-3-0-|---------------------|
A|---------------------------|---------------------|
E|---------------------------|---------------------|

Dm                     Bb        Am

E|10s------------------------|------------------------|
B|---------------------------|-8b10-8-6-5-------8p6p5-|
G|-------7p5-7---------------|------------------------|
D|---------------3s5-3-5-3-0-|------------------------|
A|---------------------------|------------------------|
E|---------------------------|------------------------|

Bb                         C

E|---------------------------|-8----------------------|
B|---6-5----5--6--8b10-------|-----8h10p8--8-6p5------|
G|-7-----7-------------------|-------------------7----|
D|---------------------------|------------------------|
A|---------------------------|------------------------|
E|---------------------------|------------------------|
   Dm

E|---------------------------|------------------------|
B|-5h6p5------5--6p5---------|-5--6--8--6--8b10r8-----|
G|--------7-----------7------|------------------------|
D|---------------------------|------------------------|
A|---------------------------|------------------------|
E|---------------------------|------------------------|

Bb                         C

E|---------------------------|-8--8b10--8---6--5h6p5--|------
B|-5h6p5------5--6--8b10-----|------------------------|-8b10-
G|--------7------------------|------------------------|------
D|---------------------------|------------------------|------
A|---------------------------|------------------------|------
E|---------------------------|------------------------|------

| A        Dm        |
It doesn't seem clear,

| Gm          C      | A7sus4 A7
What happens from here and now,

| Dm          Gm     | C        F
You've called the tune, but maybe soon,

| Bb          Bb/A   | A7sus4 A7
Someone must pay for the   piper.

| Dm                 | Bb       Am
 Well, it ain't too late to change your mind
 For it's time you knew just where I stand
 Well let me know cos I got plans

Bb       C             Dm
  From     now        on
E|----------------------|---------10-----------------10------------|
B|-----6---------8------|---13b15----r13-10-------10----10-13-13b15|
G|-----8b10------10b12--|-------------------12b14------------------|
D|----------------------|------------------------------------------|
A|----------------------|------------------------------------------|
E|----------------------|------------------------------------------|

Bb         C           Dm
  From     now        on
E|----------------------|---------10----------10-------------------|
B|-----6---------8------|------------------------------------------|
G|-----8b10------10b12--|---12b14-------12b14-----b14r12--10--12~~-|
D|----------------------|------------------------------------------|
A|----------------------|------------------------------------------|
E|----------------------|------------------------------------------|

Bb          C          Dm
  From     now        on
E|----------------------|---------13--12--10-----------------------|
B|-----6---------8------|--------------------13-13b15~~------------|
G|-----8b10------10b12--|---12b14----------------------------------|
D|----------------------|------------------------------------------|
A|----------------------|------------------------------------------|
E|----------------------|------------------------------------------|

Outro Solo

Bb                                      C
               .       .       .                  .
E|------------10------10------10---------|-------10------------------------------|
B|--13b15--------------------------------|-13b15-----15r13---10----13----10------|
G|---------------------------------------|---------------------------------------|
D|---------------------------------------|---------------------------------------|
A|---------------------------------------|---------------------------------------|
E|---------------------------------------|---------------------------------------|

Dm
          .    .                                           PH
E|-------10---10-------------------------|---------------------------------------|
B|---------------------------------------|-----10--------------------------------|
G|-12b14-----------------b14-r12-p-10----|-12------12-p-10----10~~---------------|
D|---------------------------------------|-----------------12--------------------|
A|---------------------------------------|---------------------------------------|
E|---------------------------------------|---------------------------------------|



Bb                                      C
                                .            .      .       .
E|------------10----13b15-----b15--------|-b15----b15-----b15-------r13------13--|
B|--10---13------------------------------|---------------------------------------|
G|---------------------------------------|---------------------------------------|
D|---------------------------------------|---------------------------------------|
A|---------------------------------------|---------------------------------------|
E|---------------------------------------|---------------------------------------|

Dm

E|-10---------10-------10----------------|---10-------10------------10-----------|
B|-------13---------------------13b15----|------------------13b15--------13b15---|
G|---------------------------------------|---------------------------------------|
D|---------------------------------------|---------------------------------------|
A|---------------------------------------|---------------------------------------|
E|---------------------------------------|---------------------------------------|

Bb                                      C
                                                                    .
E|---------------------------------------|---------------------------------------|
B|--13b15~~~~~~~~~b15~~~~~~~~~~b15~~~~~~~|~~~b15~~~~~~~b15~~~~~~13b15----15r13---|
G|---------------------------------------|---------------------------------------|
D|---------------------------------------|---------------------------------------|
A|---------------------------------------|---------------------------------------|
E|---------------------------------------|---------------------------------------|

Dm

E|---------------------------------------|---------------------------------------|
B|------11-p-10--------10----------------|---------------------------------------|
G|-----------------12-------12---10---9--|-10~~~---------------------------------|
D|---------------------------------------|---------------------------------------|
A|---------------------------------------|---------------------------------------|
E|---------------------------------------|---------------------------------------|

Bb                                      C
                                                                         .
E|---------------------------------------|---------------------------------------|
B|---------------------------------------|---------------------------------------|
G|-10-p-9-p------9--10--12--10--9--------|-10-p-9-p------9--10--12--10--13-13b15-|
D|-----------12---------------------12---|-----------12--------------------------|
A|---------------------------------------|---------------------------------------|
E|---------------------------------------|---------------------------------------|

Dm

E|----------------13---------------------|---------------------------------------|
B|--13b15r14b15----------13b15r13b15-----|----13b15---13b15s---------------------|
G|---------------------------------------|---------------------------------------|
D|---------------------------------------|---------------------------------------|
A|---------------------------------------|---------------------------------------|
E|---------------------------------------|---------------------------------------|



Bb                                      C

E|--10-----9----10----12----10-----------|---------------------------------------|
B|---------------------------------------|----13---10h13p10----------------------|
G|--------------------------------12b14--|--------------------12---10---10s9-----|
D|---------------------------------------|---------------------------------------|
A|---------------------------------------|---------------------------------------|
E|---------------------------------------|---------------------------------------|

Dm
                               PH
E|---------------------------------------|---------------------------------------|
B|---------------------------------------|---------------------------------------|
G|-10-p-9-p------9-----------------------|---------------------------------------|
D|-----------12-------12-------12~~------|------12-------------------------------|
A|---------------------------------------|---------------------------------------|
E|---------------------------------------|---------------------------------------|

Bb                                      C

E|---------------------------------------|---------------------------------------|
B|---------------------------------------|---------------------------------------|
G|--5b7----r5----b7----r5----b7----r5----|--b7----r5----b7----r5-----s12---12b14-|
D|---------------------------------------|---------------------------------------|
A|---------------------------------------|---------------------------------------|
E|---------------------------------------|---------------------------------------|

Dm

E|---------------------------------------|---------------------------------------|
B|----13--10-----------------------------|---------------------------------------|
G|-----------10p9------9h10p9------------|--9------------------------------------|
D|------------------12----------12-------|------12---12~~~~----------------------|
A|---------------------------------------|---------------------------------------|
E|---------------------------------------|---------------------------------------|

Bb                                      C

E|-10---12---13---12h13p12-------12---13-|-15b17----15---b17r15---13h15----13----|
B|---------------------------15----------|---------------------------------------|
G|---------------------------------------|---------------------------------------|
D|---------------------------------------|---------------------------------------|
A|---------------------------------------|---------------------------------------|
E|---------------------------------------|---------------------------------------|

Dm

E|---------------------------------------|---------------------------------------|
B|-15~~~---------------------------------|---------------------------------------|
G|---------------------------------------|---------------------------------------|
D|---------------------------------------|---------------------------------------|
A|---------------------------------------|---------------------------------------|
E|---------------------------------------|---------------------------------------|

tabbed by TPG

Comments

Rory Gallagher guitar tabs for Aint too good