Search tabs and chords

Search for song, artist or band

Log in

One click and you are in

Login with Facebook Login with Google

Why sign up and log in

Guitar Tabs Explorer
Galija guitar chords for Kotor

Guitar chords with lyrics

Tuning: Standard (E chord diagramEE A chord diagramAA D chord diagramDD G chord diagramGG B chord diagramBB E chord diagramEE)

Difficulty: Novice

Intro:

| Am chord diagramAmAm    | Am chord diagramAmAm    | G chord diagramGG  Em chord diagramEmEm | Am chord diagramAmAm    |

            Am chord diagramAmAm                              G chord diagramGG             Em chord diagramEmEm             Am chord diagramAmAm
e|---------------0---------------0------------0-----------------------------------|
B|------0--1--3---------0--1--3---------0--1-----3--1--0-----------------0--1-----|
G|----2---------------2---------------2-------------------2--0-----0--2--------2--| x2
D|--2---------------2---------------2---------------------------2-----------------|
A|--------------------------------------------------------------------------------|
E|--------------------------------------------------------------------------------|

Verse:
Am chord diagramAmAm                            Em chord diagramEmEm    G chord diagramGG   Am chord diagramAmAm
Drsko je imala godina koliko Kotor vekova
Am chord diagramAmAm                               Em chord diagramEmEm     G chord diagramGG Am chord diagramAmAm
U sebe sam je sakrio, ko strogu tajnu cuvao
      F chord diagramFF      G chord diagramGG  Am chord diagramAmAm        F chord diagramFF       G chord diagramGG   Am chord diagramAmAm
Kako usnama miluje, kako prstima sapuce

Instrumental:
            Am chord diagramAmAm                              G chord diagramGG             Em chord diagramEmEm             Am chord diagramAmAm
e|---------------0---------------0------------0-----------------------------------|
B|------0--1--3---------0--1--3---------0--1-----3--1--0-----------------0--1-----|
G|----2---------------2---------------2-------------------2--0-----0--2--------2--| x2
D|--2---------------2---------------2---------------------------2-----------------|
A|--------------------------------------------------------------------------------|
E|--------------------------------------------------------------------------------|

Verse:
         Am chord diagramAmAm                       Em chord diagramEmEm      G chord diagramGG      Am chord diagramAmAm
U zemlju snova smo otisli, kupine poljupcima deliliā€¦
                              Em chord diagramEmEm     G chord diagramGG   Am chord diagramAmAm
Bila je kraljica dodira, moja radost nocima.
      F chord diagramFF      G chord diagramGG  Am chord diagramAmAm        F chord diagramFF       G chord diagramGG   Am chord diagramAmAm
Kako usnama miluje, kako prstima sapuce
      F chord diagramFF      G chord diagramGG  Am chord diagramAmAm        F chord diagramFF       G chord diagramGG   Am chord diagramAmAm
Kako usnama miluje, kako prstima sapuce

Instrumental:
            Am chord diagramAmAm                              G chord diagramGG             Em chord diagramEmEm             Am chord diagramAmAm
e|---------------0---------------0------------0-----------------------------------|
B|------0--1--3---------0--1--3---------0--1-----3--1--0-----------------0--1-----|
G|----2---------------2---------------2-------------------2--0-----0--2--------2--| x2
D|--2---------------2---------------2---------------------------2-----------------|
A|--------------------------------------------------------------------------------|
E|--------------------------------------------------------------------------------|

Chorus:
 C chord diagramCC                   G chord diagramGG            E chord diagramEE         Am chord diagramAmAm/G chord diagramGG
Carobnjak je bila,u kosi je krila opojne mirise
C chord diagramCC                 G chord diagramGG            E chord diagramEE
Stalno se secam, Kotoru vracam da opet osetim
     F chord diagramFF       G chord diagramGG  Am chord diagramAmAm        F chord diagramFF      G chord diagramGG   Am chord diagramAmAm
Kako usnama miluje, kako prstima sapuce
     F chord diagramFF       G chord diagramGG  Am chord diagramAmAm        F chord diagramFF      G chord diagramGG   Am chord diagramAmAm
Kako usnama miluje, kako prstima sapuce

Instrumental:

| Am chord diagramAmAm    | Am chord diagramAmAm    | G chord diagramGG  Em chord diagramEmEm | Am chord diagramAmAm    | x3

                 Am chord diagramAmAm                              G chord diagramGG             Em chord diagramEmEm             Am chord diagramAmAm
e|---------------0---------------0------------0-----------------------------------|
B|------0--1--3---------0--1--3---------0--1-----3--1--0-----------------0--1-----|
G|----2---------------2---------------2-------------------2--0-----0--2--------2--|
D|--2---------------2---------------2---------------------------2-----------------|
A|--------------------------------------------------------------------------------|
E|--------------------------------------------------------------------------------|

(key change)
                 Bm chord diagramBmBm                              A chord diagramAA             F#m chord diagramF#mF#m            Bm chord diagramBmBm
e|---------------2---------------2------------2-----------------------------------|
B|------2--3--5---------2--3--5---------2--3-----5--3--2-----------------2--3-----|
G|----4---------------4---------------4-------------------4--2-----2--4--------4--|
D|--4---------------4---------------4---------------------------4-----------------|  x4
A|--------------------------------------------------------------------------------|
E|--------------------------------------------------------------------------------|

Almost there ...

Sign in to get your own page with links to favourite songs and more. You are just one click away...

Login with Facebook Login with Google