Log in

One click and you are in

Login with Facebook Login with Google

Why sign up and log in

Guitar Tabs Explorer
Galantis guitar tabs for Gold dust solo

Guitar tabs

Galantis - Gold Dust (Drop Melody Tab)

Tabbed by: Finn Armstrong

Standard Tuning

Capo: 6

e|-------0--3--------0--3--------0--3--------0--3--------0-------------------|
B|-1--3--------1--3--------1--3--------1--3--------1--3-----3----------------|
G|---------------------------------------------------------------------------|
D|---------------------------------------------------------------------------|
A|---------------------------------------------------------------------------|
E|---------------------------------------------------------------------------|


Or if you want to get tricky:

e|-------0--3--------0--3--------0--3--------0--3--------0-------------------|
B|-1--3--------1--3--------1--3--------1--3--------1--3-----3----------------|
G|---------------------------------------------------------------------------|
D|---------------------------------------------------------------------------|
A|-------0--3--------0--3--------0--3--------0--3--------0-------------------|
E|-1--3--------1--3--------1--3--------1--3--------1--3-----3----------------|


(Also this is my first tab, so don't go mad at me)

Other versions of Gold Dust Solo

Gold dustTabs

↓ Add and view comments below ↓

What do you think about this song and these tabs?

Add your comments, questions, rant or a thumbs up below.

Almost there ...

Sign in to get your own page with links to favourite songs and more. You are just one click away...

Login with Facebook Login with Google