Log in

One click and you are in

Login with Facebook Login with Google

Why sign up and log in

Guitar Tabs Explorer
Galactic Cowboys bass tabs for Psychotic companion

Psychotic Companion bass tab by Galactic Cowboys

Galactic Cowboys bass tabs for Psychotic companion

Bass tabs

Title: Psychotic Companion
Album: Machine Fish

I enjoy this song.  Pay no attention to the top 2 strings, because this is on a
4 string bass and drop D tuning.
I didn't bother with the timing much, I think you'll do okay though.
Visit my website at http://members.tripod.com/~CokeMan007/index.html

---------------------------|-------------------------|----------------------|-
---------------------------|-------------------------|----------------------|-
---------------------------|-------------------------|----------------------|-
---------------------------|-------------------------|----------------------|-
---------------------------|-------------------------|----------------------|-
-0--0-0-15b--0-0-14b--0-13-|-0--0-0-11b--0-0-10--0-9-|-0--0-0-8--0-0-7--0-6-|-
---------------------------|--------------------------------------------------
---------------------------|--------------------------------------------------
---------------------------|--------------------------------------------------
---------------------------|-3x-----------------------------------------------
---------------------------|--------------------------------------------------
-3----------6--------------|--------------------------------------------------
 Intro(above)/Verse Intro(below)

-----------------------------|------------------------------------------------
-----------------------------|------------------------------------------------
-----------------------------|------------------------------------------------
-----------------------------|-4x---------------------------------------------
-----------------------------|------------------------------------------------
-0--0-0-0-1-3--0--0--0-3-5-6-|------------------------------------------------
 Verse(below)

-----------------------------|-----------------------------|----------------|-
-----------------------------|-----------------------------|----------------|-
-----------------------------|-----------------------------|----------------|-
-----------------------------|-----------------------------|----------------|-
-----------------------------|-----------------------------|----------------|-
-0--0-0-0-1-3--0--0--0-3-5-6-|-0--0-0-0-1-3--0--0--0-3-5-6-|-3------5-------|-

-----------------------------|------------------------------------------------
-----------------------------|------------------------------------------------
-----------------------------|------------------------------------------------
-----------------------------|-2x---------------------------------------------
-----------------------------|------------------------------------------------
-0--0-0-0-1-3--0--0--0-3-5-6-|------------------------------------------------
 Add on(below)

------------------------------------------------------------------------------
------------------------------------------------------------------------------
------------------------------------------------------------------------------
------------------------------------------------------------------------------
------------------------------------------------------------------------------
-0--0-0-0-1-3--0--0--0-3-5-6--------------------------------------------------
 Bridge(below)

---------------------------|----|------------------------|--------------------
---------------------------|----|------------------------|--------------------
---------------------------|----|------------------------|--------------------
---------------------------|-3x-|------------------------|--------------------
-3---------1---------------|----|----------------4-4-4-4-|--------------------
------3--------------------|----|-3-----6-6-6------------|--------------------
 Chorus

-----------------|-----------------|-----------------|----------------|-------
-----------------|-----------------|-----------------|----------------|-------
-----------------|-----------------|-----------------|----------------|-------
-----------------|-----------------|-----------------|----------------|-------
-----------------|-0-0-0-0-0-0-0-0-|-3-3-3-3-3-3-3-3-|-----------1----|-------
-0-0-0-0-0-0-0-0-|-----------------|-----------------|-3--2--3-2------|-------


-----------------|-----------------|-----------------|----------------|-------
-----------------|-----------------|-----------------|----------------|-------
-----------------|-----------------|-----------------|----------------|-------
-----------------|-----------------|-----------------|----------------|-------
-----------------|-0-0-0-0-0-0-0-0-|-3-3-3-3-3-3-3-3-|-1--------------|-------
-0-0-0-0-0-0-0-0-|-----------------|-----------------|-----1---1------|-------
 I don't know the order, but you can figure it out

↓ Add and view comments below ↓

What do you think about this song and these tabs?

Add your comments, questions, rant or a thumbs up below.

Almost there ...

Sign in to get your own page with links to favourite songs and more. You are just one click away...

Login with Facebook Login with Google