Log in

One click and you are in

Login with Facebook Login with Google

Why sign up and log in

Guitar Tabs Explorer
Galactic Cowboys bass tabs for About mrs leslie

About Mrs Leslie bass tab by Galactic Cowboys

Galactic Cowboys bass tabs for About mrs leslie

Bass tabs

Title: About Mrs. Leslie
Album: Space In Your Face

Pay no attention to top 2 strings.  This is the bass tab played in drop D tuning

.  Enjoy!
Visit my webpage at http://members.tripod.com/~CokeMan007/index.html

------------------------------------------------------------------------------
------------------------------------------------------------------------------
------------------------------------------------------------------------------
------------------------------------------------------------------------------
------------------------------------------------------------------------------
-1-1--1-1--2-2--2-2--2-2------------------------------------------------------
 Drums, then(above)/Intro(below)

-----------------|-----------------|-----------------|--------------------|---
-----------------|-----------------|-----------------|--------------------|---
-----------------|-----------------|-----------------|--------------------|---
-----------------|-----------------|-----------------|--------------------|4x-
-----------------|-----------------|-----------------|--------------------|---
-3-0-3-0-1-0---0-|-3-0-1-0---3-4-5-|-3-0-3-0-1-0---0-|-1-1-1-1-2-2-2-2-2-2|---
 Verse(same as Intro, 4x)/Bridge(below)

-----------------|-----------------|----|-----------------|-------------------
-----------------|-----------------|----|-----------------|-------------------
-----------------|-----------------|----|-----------------|-------------------
-----------------|-----------------|-3x-|-----------------|-------------------
-1-0-----0-------|-----------------|----|-1-----3-3-------|-------------------
-----5-3---5-3-2-|-----1-------0---|----|-----------------|-------------------
 Chorus(below)

-----------------|-----------------|-----------------|-----------------|------
-----------------|-----------------|-----------------|-----------------|------
-----------------|-----------------|-----------------|-----------------|------
-----------------|-----------------|-----------------|-----------------|------
-----------------|-0---------------|-1---------------|-----------------|------
-0---------------|-----------------|-----------------|-1---------------|------

-----------------|-----------------|-----------------|-----------------|----|-
-----------------|-----------------|-----------------|-----------------|----|-
-----------------|-----------------|-----------------|-----------------|----|-
-----------------|-----------------|-----------------|-----------------|----|-
-----------------|-0---------------|-1---------------|-----------------|----|-
-0---------------|-----------------|-----------------|-1-----1-----1---|----|-
 Intro(1x)/Verse/Bridge/Chorus/M.S.(below)

-----------------|------------------------------------------------------------
-----------------|------------------------------------------------------------
-----------------|------------------------------------------------------------
-----------------|------------------------------------------------------------
-----------------|-4x---------------------------------------------------------
-00000000001-001-|------------------------------------------------------------
 M.S.2(below, 9/8 time)

-------------------|----------------------------------------------------------
-------------------|----------------------------------------------------------
-------------------|----------------------------------------------------------
-------------------|----------------------------------------------------------
-------------------|-1x-------------------------------------------------------
-0-5-6-0-5-6-0-5-8-|----------------------------------------------------------
 M.S(3x)/M.S.2(1x)/M.S.(1x)/M.S.2(1x)/M.S.(1x)/M.S.2(1x)/M.S.3(below)

------------------|------------------|----|-----------------|-----------------
------------------|------------------|----|-----------------|-----------------
------------------|------------------|----|-----------------|-----------------
------------------|------------------|----|-----------------|-----------------
------------------|------------------|-5x-|-----------------|-1------3-3------
-0---12---0-7-6---|-0---12---0-6-5-8-|----|-3-2-1-3-2-1-3-2-|-----------------
 Chorus(different rhythm)/Intro

↓ Add and view comments below ↓

What do you think about this song and these tabs?

Add your comments, questions, rant or a thumbs up below.

Almost there ...

Sign in to get your own page with links to favourite songs and more. You are just one click away...

Login with Facebook Login with Google