Log in

One click and you are in

Login with Facebook Login with Google

Why sign up and log in

Guitar Tabs Explorer
Galactic Cowboys guitar tabs for 9th of june

Guitar tabs

"9th of June"
by Galactic Cowboys
Transcribed by Jason Luscher
Standard tuning: EADGBE
INTRO - repeat 4x

E-----------------------------|
B-----------------------------|
G-----------------------------|
D-2-2--2-2-2--2-2-2--2-2-2--2-|
A-2-2--2-2-2--2-2-2--2-2-2--2-|
E-0-0--0-0-0--0-0-0--0-0-0--0-|


VERSE - repeat 3x

E--------------X-X--X-X--X-X-|--------------X-X--X-X--X-X-|
B--------------X-X--X-X--X-X-|--------------X-X--X-X--X-X-|
G--------------X-X--X-X--X-X-|2--5--4-------X-X--X-X--X-X-|
D-4/54^0-4----X-X--X-X--X-X-|2--5--4-------X-X--X-X--X-X-|
A-2/32^0-2----X-X--X-X--X-X-|0--3--2-------X-X--X-X--X-X-|
E--------------X-X--X-X--X-X-|--------------X-X--X-X--X-X-|

E--------------X-X--X-X--X-X-|--------------------|
B--------------X-X--X-X--X-X-|--------------------|
G--------------X-X--X-X--X-X-|-2--2---------------|
D-4/54^0-4----X-X--X-X--X-X-|-2--2--5--5-5--3----|
A-2/32^0-2----X-X--X-X--X-X-|-0--0--5--5-5--3----|
E--------------X-X--X-X--X-X-|-------3--3-3--1----|


PRE-CHORUS - repeat 2x

E-------------------------------|--------------------------------|
B-------------------------------|--------------------------------|
G-------------------------------|--------------------------------|
D----------5--4--4^2^0----------|-7--7-7-7-7/8--8-8-8-87--2--4--|
A----------------------3--------|-7--7-7-7-7/8--8-8-8-87--2--4--|
E-0-2-3-0-----------------2-----|-5--5-5-5-5/6--6-6-6-65--0--2--|
        P

CHORUS

E------------------------|------------------------|------------------------|
B------------------------|------------------------|------------------------|
G-4--4--4--4--4--4--4--4-|------------------------|-2--2--2--2--2--2--2--2-|
D-4--4--4--4--4--4--4--4-|-5--5--5--5--5--5--5--5-|-2--2--2--2--2--2--2--2-|
A-2--2--2--2--2--2--2--2-|-5--5--5--5--5--5--5--5-|-0--0--0--0--0--0--0--0-|
E------------------------|-3--3--3--3--3--3--3--3-|------------------------|

E-------------X-X----X---|------------------------|------------------------|
B-------------X-X----X---|------------------------|------------------------|
G-------------X-X-5--X-5-|-4--4--4--4--4--4--4--4-|------------------------|
D-5--5--5--5--X-X-5--X-5-|-4--4--4--4--4--4--4--4-|-2--2--2--2--2--2--2--2-|
A-5--5--5--5--X-X-3--X-3-|-2--2--2--2--2--2--2--2-|-2--2--2--2--2--2--2--2-|
E-3--3--3--3--X-X----X---|------------------------|-0--0--0--0--0--0--0--0-|

E-------------X-X----X---|------------------------|
B-------------X-X----X---|------------------------|
G-------------X-X-5--X-5-|-2--2--2--2--2--2--2--2-|
D-5--5--5--5--X-X-5--X-5-|-2--2--2--2--2--2--2--2-|
A-5--5--5--5--X-X-3--X-3-|-0--0--0--0--0--0--0--0-|
E-3--3--3--3--X-X----X---|------------------------|

Repeat the VERSE 3x here
Repeat the PRE-CHORUS 2x here
Repeat the CHORUS 1x here

INTERLUDE

E--------------------------------|
B--------------------------------|
G--------------------------------|   repeat 5x
D--------------------------------|
A---------1--0-----------1-0-----|
E-0-2-3-0-------0--2-3-0-----2-1-|
        P              P

E-------------------------------|-------------------------|
B-------------------------------|-------------------------|
G----------------------------2--|-2--2-2-2--3--3-3--3-3-3-|
D----------------------------2--|-2--2-2-2--3--3-3--3-3-3-|
A---------1--0-----------1-0-0--|-0--0-0-0--1--1-1--1-1-1-|
E-0-2-3-0-------0--2-3-0--------|-------------------------|
        P              P

E--------------------------------|-------------------------------|
B--------------------------------|-------------------------------|
G--------------------------------|----------------------------2--|
D--------------------------------|----------------------------2--|
A---------1--0-----------1-0-----|---------1--0-----------1-0-0--|
E-0-2-3-0-------0--2-3-0-----2-1-|-0-2-3-0-------0--2-3-0--------|
        P              P

E-------------------------|
B-------------------------|
G-2--2-2-2--3--3-3--3-3-3-|
D-2--2-2-2--3--3-3--3-3-3-|
A-0--0-0-0--1--1-1--1-1-1-|
E-------------------------|

Repeat PRE-CHORUS 6x (this is the rhythm guitar during the solo)
Repeat CHORUS 6X (there are variations this time but it follows the same chords)

END

E---------------------------------------|
B---------------------------------------|
G---------------------------------------|
D-4/54^0-4-2-2--2-2-2--2-2-2--2-2-2--2-|
A-2/32^0-2-2-2--2-2-2--2-2-2--2-2-2--2-|
E-----------0-0--0-0-0--0-0-0--0-0-0--0-|

Repeat INTRO 3x here


E--------------------------------|
B--------------------------------|
G--------------------------------|   repeat 4x
D--------------------------------|
A---------1--0-----------1-0-----|
E-0-2-3-0-------0--2-3-0-----2-1-|
                P      P

E---------------------------------|
B---------------------------------|
G---------------------------------|  repeat 8x
D---------------------------------|
A---4/5---4/5---4/5---4/5---43-2-|
E-0-2/3-0-2/3-0-2/3-0-2/3-0-21-0-|
  P     P     P     P     P     P

/ = slide up
 = slide down
^ = hammer-on/pull-off
P = palm mute

↓ Add and view comments below ↓

What do you think about this song and these tabs?

Add your comments, questions, rant or a thumbs up below.

Almost there ...

Sign in to get your own page with links to favourite songs and more. You are just one click away...

Login with Facebook Login with Google