Search tabs and chords

Browse bands and artists

A B C D E F G H I J K L M N O P Q R S T U V W X Y Z #

Log in

[ Register here | Forgot password ]

Guitar Tabs Explorer
Print

Guitar tabs with lyrics:

Because He Lives tab by Gloria Gaither

-------------------------------------------------------------------------------
                          because He lives - Gaither
-------------------------------------------------------------------------------
Tabbed by:
E-mail:
key of Ab
Tuning:E-A-D-G-B-e

e|--------------------------------------------------------------------------------|
B|-----------------------1--------------------------------------------------------|
G|-------------------2----------3---1-----3---1-----------------------------------|
D|-1------------1--------1------------3---3---3---3---1---3----1---0-------1------|
A|-3---3----4---3----3----------3-----4-----------4-------------------4----3---3--|
E|-----4----6---------------------------------------------4--------4--6-----------|
  God sent His son they called Him Jesus He came to love heal and forgive He lived
e|----------------------------------------------------------------------------|
B|----------------1---2----------------1----0---1-----------------------------|
G|----------1--3-------------1--1--3-----------------1-----------0--3---1-----|
D|------1---------1------3-------------1----0---1--------1----1---------------|
A|-4----3---3--4------4--4---4--4--4-----------------3--------4--4--4---3-----|
E|-6--------------------------------------------------------------------------|
  and died to buy my pardon an empty grave is there to prove my savior lives
e|---------------------------------------------------------------------------|
B|-----------------1----1--3----1--------------------------------------1-----|
G|---------1----3-------------------3--1------3-1------------------1------3--|
D|------1--1----1--1----1--3----1---------3----------3---1---1-1-------1-----|
A|----------------------------------3-----4---4------4---3-1-------3------4--|
E|-----------------------------------------------------------4---------------|
chorus because He lives I can face tomorrow because He lives all fear is gone
e|----------------------------------------------------------------------------------------|
B|------------1-2-4--1--------1---2-------------------1----1---3--1------------1----------|
G|---1----3-------------3----------------1---1---3--------------------3----3-------3---1--|
D|-1-1--------1---1--1--------1------3----------------1----1---3--1------------1----------|
A|--------4-------------4---------4--4-------4---4--------------------4----4-------4---3--|
E|----------------------------------------------------------------------------------------|
  because I know    He holds the future and life is worth the living just because He lives



************************************

| /   slide up
| \   slide down
| h   hammer-on
| p   pull-off
| ~   vibrato
| +   harmonic
| x   Mute note
| B   Bend
| pb  Pre-bend
| br  Bend release
| pbr Pre-bend release
| brb Bend release bend

Comments

Gloria Gaither guitar tabs for Because he lives