Search tabs and chords

Search for song, artist or band

Log in

One click and you are in

Login with Facebook Login with Google

Why sign up and log in

Guitar Tabs Explorer
Serge Gainsbourg guitar tabs for No no thanks no

Guitar tabs with lyrics

Intro

E|------3--------5-5-3---------------------0--------------------|
B|--1-1----------5---5-5-3-1-------1-5-1---0-3-1-----1-1-1------|
G|--0-2-0--------5---4-4-----2-----2-4-2---0-----2-0-0-2-0------|
D|--2-2-2--------3---2-----2-------2-3-2---------3---2-3-2------|
A|--3-0-2------------------0-----------0-------------3-3-3------|
E|------0--------------------------1-4-----3--------------------|

verse 1
E|--------0-3------------------------------------------------|
B|--1-1-0-0-0--------------------------------------(1)--1----|
G|--0-2-0-0-0-----------------2--------------4------2---3----|
D|--2-2-2-2-2---------------------2--------------3------2---2----|
A|--3-0-2-2-2-------------------------------------------0--------|
E|------0-0-0---------------------1--------------3--------4-3----|
No, no, thanks, no              Je n'fume qu'la marijuana

E|-1--------------------------0---------------1-----|
B|-1---------5-1--------------0-3-1-----1-1-1-0-----|
G|-2---------4-2---3----------0-----2-0-0-2-0-0-----|
D|-3---------3-2---2----------------3---2-3-2-0-----|
A|-0-----------0--------------------0---3-3-3-2-----|
E|-----------4---4-3----------3---------------3-----|
No,     no, thanks, no       À quoi bon insis-ter

verse 2
E|--------0-3-----------------------------------------------|
B|--1-1-0-0-0--------------------------------------(1)--1---|
G|--0-2-0-0-0-----------------2--------------4------2---3---|
D|--2-2-2-2-2---------------------2--------------3------2---2---|
A|--3-0-2-2-2-------------------------------------------0-------|
E|------0-0-0---------------------1--------------3--------4-3---|
No, no, thanks, no  Ma   dernière cigarette

E|-1--------------------------0---------------------|
B|-1---------5-1--------------0-3-1-----1-1-1-3-----|
G|-2---------4-2---3----------0-----2-0-0-2-0-1-----|
D|-3---------3-2---2----------------3---2-3-2-3-----|
A|-0-----------0--------------------0---3-3-3-2-----|
E|-----------4---4-3----------3---------------------|
No,     no, thanks, no  Est déjà refroidie

verse 3
E|--------0-3---------------------------0-3--------------|
B|--1---0-0-0-----------------1-------0-0-0--------------|
G|--2-2-0-0-0-----------------2-------0-0-0--------------|
D|--2-2-2-2-2---------------------2-------2-2-2------------------|
A|--0-0-2-2-2-----------------------------2-2-2------------------|
E|------0-0-0---------------------1-------0-0-0------------------|
No, no, thanks, no    Je n'aime que le bourbon

E|-1--------------------------0---------------------|
B|-1---------5-1--------------0-3-1-----1-1-1-3-----|
G|-2---------4-2---3----------0-----2-0-0-2-0-1-----|
D|-3---------3-2---2----------------3---2-3-2-3-----|
A|-0-----------0--------------------0---3-3-3-2-----|
E|-----------4---4-3----------3---------------------|
No,     no, thanks, no  C chord diagramCC'est une affaire de  goût

verse 4
E|---------------------------0-3-------------------------0-1-------------------------0--------|
B|-1-------------------0-0-0--------------3--------1---------------------------1-1--------|
G|-2-------------------0-0-0--------------4--------2-2-2-----------------------3-3--------|
D|-2-------------------2-2-2------------------2--------2-2-2-----------------------2-----0-2--|
A|-0-2-1-0-----------------2-2-2-------------------------------------------------------3---3------|
E|-------------------------0-0-0---------------------------1-1-1----------------------------------|

No, no, thanks, no                                      Mon dernier verre, je l'ai vidé

E|---------------------------------------------------------0---------------1-----|
B|---------5--------1--------1-----------------------------0-3-1-----1-1-1-0-----|
G|-2-------4--------2--------3-----------------------------0-----2-0-0-2-0-1-----|
D|-3-------3--------2--------2-----------------------------------3---2-3-2-3-----|
A|------------------0--------------------------------------------0---3-3-3-2-----|
E|-1-------4-----------------3-----------------------------3---------------------|
No,     no, thanks, no                                  Avec Rosema-ry


**********************************

harmonics

**********************************

Other versions of No No Thanks No

No no thanks noTabs

Almost there ...

Sign in to get your own page with links to favourite songs and more. You are just one click away...

Login with Facebook Login with Google