Log in

One click and you are in

Login with Facebook Login with Google

Why sign up and log in

Guitar Tabs Explorer
Andreas Gabalier tabs for Amoi seg ma uns wieder intro

Amoi Seg Ma Uns Wieder Intro tab by Andreas Gabalier

Andreas Gabalier tabs for Amoi seg ma uns wieder intro

Guitar tabs

Andreas Gabalier


             A chord diagramE minorEm

A chord diagramE MajorE||-------|-----------0--------------|
A chord diagramBB||-------|--------0-----0-----0-----|
A chord diagramG+G||-------|-----0-----------0-----0--|
A chord diagramD MajorD||-------|--------------------------|
A chord diagramA augmentedA||-------|--------------------------|
A chord diagramE MajorE||-------|--0-----------------------|
  A chord diagramE minorEm                         A chord diagramC majorC

--3--------2--------0-----|--------------------------|
-----0--------0--------0--|-----------3--------------|
--------0--------0--------|--------0-----0-----0-----|
--------------------------|-----2-----------0-----0--|
--------------------------|--------------------------|
--------------------------|--0-----------------------|


  A chord diagramC majorC                          A chord diagramG+G

--------------------------|--------------------------|
--3--------1--------0-----|-----------0--------------|
-----0--------0--------0--|--------0-----0-----0-----|
--------2--------2--------|-----0-----------0-----0--|
--------------------------|--------------------------|
--------------------------|--3-----------------------|


  A chord diagramG+G                          A chord diagramD MajorD

--------------------------|--------------------------|
--0--------1--------0-----|-----------3--------------|
-----0--------0--------0--|--------2-----2-----2-----|
--------0--------0--------|-----0-----------0-----0--|
--------------------------|--------------------------|
--------------------------|--2-----------------------|


--2-----------------------|-----||
-----------3--------------|-----||
-----2--------2-----2-----|-----||
--------0--------0-----0--|-----||
--------------------------|-----||
--------------------------|-----||

Other versions of Amoi Seg Ma Uns Wieder Intro

Amoi seg ma uns wiederTabs

Almost there ...

Sign in to get your own page with links to favourite songs and more. You are just one click away...

Login with Facebook Login with Google