Log in

One click and you are in

Login with Facebook Login with Google

Why sign up and log in

Guitar Tabs Explorer
G Love And Special Sauce bass tabs for The things that i used to do

The Things That I Used To Do bass tab by G Love And Special Sauce

G Love And Special Sauce bass tabs for The things that i used to do

Bass tabs

Pretty simple. Jimi Jazz plays this on an upright, but here it is for electric
bass. Pretty sweet line if you ask me.

G|----------------------|
D|-5---5----------------|
A|--5---5---3-----------|
E|--------------0-1-2---|

Jimi plays this variation every so often.

G|----------------------|
D|-5---5----------------|
A|--5---5---7b~r--8-9---|
E|----------------------|

Almost there ...

Sign in to get your own page with links to favourite songs and more. You are just one click away...

Login with Facebook Login with Google