Log in

One click and you are in

Login with Facebook Login with Google

Why sign up and log in

Guitar Tabs Explorer
G Love And Special Sauce guitar tabs for Sometimes

Guitar tabs with lyrics

song:sometimes
artists:g-love and special sauce
album:coast to coast motel
tabbed by:samuel barker <sbarker@bayou.uh.edu>
                    A chord diagramF7#9F7#9 A chord diagramE7#9E7#9 A chord diagramEb7#9Eb7#9 A chord diagramD7#9D7#9
e-/-8-/10--9--7/8--/--------------------/
B-/-6-/-8--7--5/8--/-8-8--7-7--6-6--5-5-/
G-/-6-/-8--7--5/6--/-8-8--7-7--6-6--5-5-/
D-/-6-/-8--7--5/6--/-7-7--6-6--5-5--4-4-/
A-/-x-/-x--x--x/x--/-8-8--7-7--6-6--5-5-/
E-/-6-/-8--7--5/6--/--------------------/
  A chord diagramBbM7Bbm7    breakdown      chorus

e-/-------------/------------------------------------------/
B-/-------------/------------------------------------------/
G-/-------------/------------------------------------------/
D-/-----6-------/-----6---------6---------6----------------/
A-/-6/8---8-6-4-/-6/8---8-6-6/8---8-6-6/8---8-6-4-6-4------/
E-/-------------/--------------------------------------4/6-/
     riff 1                riff 2

notes:

verse is basically various parts of the A chord diagramBbM7Bbm7 chord with variations of riff
1. at the first two sometimes the bend is on the 9th fret of the B-string
on the breakbown let each note ring out to make it more harmonic
and on the chorus just rock it how you feel it


intro: A chord diagramBbM7Bbm7 w/ riff 1  (4x)


verse 1:
A chord diagramBbM7Bbm7
I'll ..
sittin' ..
lookin' ..
i ..
oh ..
strange ..
sometimes (bend)
you ..(riff 1)
sometimes (bend)
you ..(riff 1)

breakdown (2x)

verse 2:
A chord diagramBbM7Bbm7
everywhere's ..
need..
i ..
i'm ..
one ..
lookin ...
gone ...


chorus:
A chord diagramF7#9F7#9        A chord diagramE7#9E7#9
sometimes
    A chord diagramEb7#9Eb7#9             A chord diagramD7#9D7#9
you ..(3x)
A chord diagramF7#9F7#9     A chord diagramE7#9E7#9     A chord diagramEb7#9Eb7#9    A chord diagramD7#9D7#9
sometimes ..

A chord diagramBbM7Bbm7 w/ riff 1


verse 3:
A chord diagramBbM7Bbm7
ifound ..(riff 1)
A chord diagramBbM7Bbm7
before ...
i ..(riff 1)
A chord diagramBbM7Bbm7
she ..
i ..(riff 1)
A chord diagramBbM7Bbm7
oh ..
see i ..(riff 1)
                   A chord diagramBbM7Bbm7
i ..
always ..

breakdown (2x)

repeat chorus

end

Almost there ...

Sign in to get your own page with links to favourite songs and more. You are just one click away...

Login with Facebook Login with Google