Log in

One click and you are in

Login with Facebook Login with Google

Why sign up and log in

Guitar Tabs Explorer
G Love And Special Sauce guitar tabs for Self-titled album

Self-titled Album tab by G Love And Special Sauce

G Love And Special Sauce guitar tabs for Self-titled album

Guitar tabs

BAND: G. LOVE AND SPECIAL SAUCE
ALBUM: SELF-TITLED

Key:
(b)= bend
(h)= harmonic
 / = slide
"The things I used to used to do"

Whole song:
|----------------------|
|--5---5---------------|
|----5---5--3----------|
|-------------0--1--2--|


"Blues Music"


Verse:
|-----------------------7/9--|
|----------------------------|
|----------------------------|
|--7--7--5--3--3-----0-------|


Chorus:
|----------------|
|----------------|
|-------9--7--5--|
|--5/7-----------|


"Garbage Man"

|-------------7--|
|----------------|
|--5-5---5-5-----|
|----------------|

"Eyes Have Miles"


Verse:
|---------------------------------|
|----8----------------------------|
|-------------------10--------10--|
|--6-----8(b)--6-------10--8------|


Chorus:			Chorus 2:
|------------|		|------------10--9--8--|
|------------|		|----------------------|
|--10--9--8--|		|--10--9--8------------|
|------------|		|----------------------|


"Baby Got Sauce"


Verse and Chorus:			Verse 2:
|------------------------|	|--------------------------|
|------------------------|	|--7--7--------9--9--------|
|--7--7-------9--9-------|	|--------9--9--------7--7--|
|-------9--9-------7--7--|	|--------------------------|


Bridge:
|----------------3--4--5--6--4--3------------------|
|--6--4--3----6--------------------6--3----3--6--4-|
|----------6----------------------------4----------|
|--------------------------------------------------|


|-6--4--3--------------------1--4---4--1--4----1--2(b)--4-|
|---------6--4--3-------1--4----------------4-------------|
|------------------4--2-----------------------------------|
|---------------------------------------------------------|

"Rhyme for the Summertime"


Intro:
|-----------------------|
|-----------------------|
|--5--------------------|
|---------7-----3----1--|

|-----------------------------------------------------|
|-------7--9---9--7----------9/3--x--0----------------|
|--5--9-------------9------------------0--0--2--3--5--|
|---------------------7--7/3--------------------------|


Verse:
|-------2--4---4--2---------------------------|
|----4--------------4----------2--3--2--------|
|--5---------------------2--5-----------5--2--|
|----------------------3----------------------|


"Cold Beverage"


Verse:
|-------12(h)---12(h)----------------------|
|------------12(h)---12(h)-----------------|
|------------------------------------------|
|--3/1--------------------------3/1---1/3--|


Chorus:
|------------7--7--7--7--7-----|
|------------------------------|
|---------------------------5--|
|--3/1--3----------------------|


Break:
|--------------|
|--------------|
|--------------|
|--3--4--5--7--| "Something from the bar.."

End:
|-----------------|
|-----------------|
|-----------------|
|--3--0--1--2--3--|


"Fatman"


Verse:			Chorus:
|--------5/2--|		|-----2--|--6--7--8--9----9--8--7--6-|
|-------------|		|--------|---------------------------|
|--0--0-------|		|--0-----|---------------------------|
|-------------|		|--------|---------------------------|


Outro: Mess around with A chord diagramE MajorE & A chord diagramBB


"This ain't livin"

Whole song:
|-----------------|
|-----------------|
|--3--3---1--1----|
|-------3------1--|


"Walk to slide"


Verse:
|---------------------------------------4--6--4-----------|
|--------------------5-------2--4--5-------------6--4-----|
|-----------------------5(b)---------4-----------------6--|
|--2--2--x--x--2--3---------------------------------------|


Break:
|-----------2/9-----2/9--|
|------------------------|
|------------------------|
|--0--0--0---------------|


"Shooting Hoops"


Verse:				Chorus:
|--------------------|		|------------|
|---------------3----|		|------------|
|--5---------3----5--|		|------------|
|----3--4--5---------|		|--5------3--|
		     "They shootin hoops"


Solo:
|-------------------------------------|
|-------------------------------------|
|----2--3--2--3--5-----2--3--2--3--4--|
|--3----------------3-----------------|

|--------------------|------------------|
|---------------3----|---------------3--|
|--5---------3-----5-|-------------3----|
|----3--4--5---------|---3---4--5-------|

|-----------------------------------------------|
|-3--2--1--5---3--2--2---------------------3----|
|----------------------2--3--5----------3-----3-|
|-------------------------------3--4--5---------|

|----------------------------------------------------------|
|--------------------------7--6--5--5--3--2--1-------------|
|----------3--------4---7-----------------------5--3--2--1-|
|-3--4--5-----3--5-----------------------------------------|

|--------------|
|--------------|
|--0-----------|
|-----3--4--5--|


"Some peoples like that"

|--------------4-----------|
|--------5--7-----7--5-----|
|-----------------------5--|
|--6--5--------------------|


"Town to town"

Whole song:
|----------------|----------------|
|----------------|--3/6--3--------|
|--3/6--3--------|----------1--1--|
|----------1--1--|----------------|


"I love you"

(guitar vamp)


TRANSCRIBER: GREG CROAK
Questions or corrections: Greg_Croak@nobles.edu
*This file is all my own work*

Almost there ...

Sign in to get your own page with links to favourite songs and more. You are just one click away...

Login with Facebook Login with Google