Log in

One click and you are in

Login with Facebook Login with Google

Why sign up and log in

Guitar Tabs Explorer
G Love And Special Sauce guitar tabs for Night of the living dead

Night Of The Living Dead tab by G Love And Special Sauce

G Love And Special Sauce guitar tabs for Night of the living dead

Guitar tabs

Verse/Chorus

A chord diagramC majorC              A chord diagramFF
e||--------------|----------1-------|
B||------------1-|-------------1----|
G||---------0----|----------------2-|
D||----0h2-------|----3-------------|
A||-3------------|------------------|
E||--------------|-1-----1----------|

A chord diagramBb majorBb               A chord diagramEb MajorEb
----6-----6---- |-----11-------11-------|
------6-----6---|--------11-------11----|
--------7-----7-|-----------12-------12-|
----------------|-----------------------|
----------------|-----------------------|
-6--------------|-11--------------------|

A chord diagramC majorC                  A chord diagramFF
-------------10p8-|-------------------|
------------------|------------10-----|
--------9p8-------|--------10------10-|
---(10)-----------|----10-------------|
------------------|-8-----------------|
-8----------------|-------------------|

A chord diagramBb majorBb               A chord diagramEb MajorEb
--------------|------11-------11-------|
------------6-|---------11-------11----|
-------7p6----|-/12--------12-------12-|
--------------|-/13--------------------|
----8---------|------------------------|
-6------------|------------------------|

Interlude

A chord diagramC majorC              A chord diagramFF
e||--------------|----------1-|
B||--------------|-1-----1--1-|
G||--------------|-2-----2----|
D||-------/5--3-|----3-------|
A||-3--3---------|------------|
E||--------------|------------|

A chord diagramBb majorBb               A chord diagramEb MajorEb
---------------|----------6h8-|
------6--------|-----6h8------|
----7----------|-/7-----------|
-/8------5--3-|--------------|
---------------|--------------|
---------------|--------------|

A chord diagramC majorC                  A chord diagramFF
-------------10p8-|-------------------|
------------------|------------10-----|
--------9p8-------|--------10------10-|
---(10)-----------|----10-------------|
------------------|-8-----------------|
-8----------------|-------------------|

A chord diagramBb majorBb               A chord diagramEb MajorEb
--------------|-----------------|
------------6-|-/11--11--10--10-|
-------7p6----|-/12--12--10--10-|
--------------|-----------------|
----8---------|-----------------|
-6------------|-----------------|

"Control, control, control"

A chord diagramFF
e||-----------------------------|
B||-----1-----1-----1-----1-----|
G||-----3p2---3p2---3p2---3p2---|
D||---------3-----3-----3-----3-|
A||-----------------------------|
E||-1---------------------------|


Solo in A chord diagramC majorC minor pentatonic

Almost there ...

Sign in to get your own page with links to favourite songs and more. You are just one click away...

Login with Facebook Login with Google