Log in

One click and you are in

Login with Facebook Login with Google

Why sign up and log in

Guitar Tabs Explorer
G Love And Special Sauce guitar tabs for Breakin up

Guitar tabs

G. Love and Special Sauce  " Breakin? Up
Tab by Daniel  snie ek

Tuning: DGCFAD
Intro
E---x-0-0---0-0-x--0-0---0-0-x--0-0---3-3-x-x-x---1--3-3-3-0-0---|
B---x-0-0---1-1-x--0-0---0-0-x--0-0---3-3-x-x-x---1--1-1-1-1-1---|
G---x-0-0---0-0-x--0-0---1-1-x--0-0---4-4-x-x-x---2--2-2-2-2-2---|
D---x-0-0---2-2-x--0-0---2-2-x--0-0---5-5-x-x-x---3--3-3-3-3-3---|
A---x-0-0---3-3-x--0-0---2-2-x--0-0---5-5-x-x-x---3--------------|
E---x-0-0---3-3-x--0-0---0-0-x--0-0---3-3-x-x-x---1--------------|

E-----0-0-x--0-0-0---0-0-x--0-0-0---3-3-x-0-0-0-0-0-0---|
B-----1-1-x--0-0-0---0-0-x--0-0-0---3-3-x-0-0-0-0-0-0---|
G-----0-0-x--0-0-0---1-1-x--0-0-0---4-4-x-0-0-0-0-0-0---|
D-----2-2-x--0-0-0---2-2-x--0-0-0---5-5-x-0-0-0-0-0-0---|
A-----3-3-x--0-0-0---2-2-x--0-0-0---5-5-x-0-0-0-0-0-0---|
E-----3-3-x--0-0-0---0-0-x--0-0-0---3-3-x-0-0-0-0-0-0---|


Verse 1, chorus 1, verse 2, chorus 2, chorus 3

Main riff practically same as the intro

E-----0-0-x--0-0-0---0-0-x--0-0-0---3-3-x-x-x---1--3-3-3-0-0---|
B-----1-1-x--0-0-0---0-0-x--0-0-0---3-3-x-x-x---1--1-1-1-1-1---|
G-----0-0-x--0-0-0---1-1-x--0-0-0---4-4-x-x-x---2--2-2-2-2-2---|
D-----2-2-x--0-0-0---2-2-x--0-0-0---5-5-x-x-x---3--3-3-3-3-3---|
A-----3-3-x--0-0-0---2-2-x--0-0-0---5-5-x-x-x---3--------------|
E-----3-3-x--0-0-0---0-0-x--0-0-0---3-3-x-x-x---1--------------|

There are little differences every time he play it through the song


Verse 3 (Why won t you let me love you )

E---1-1-1-1-1-3-3-3-3-3-----------------|
B---1-1-1-1-1-3-3-3-3-3-----------------|
G---2-2-2-2-2-4-4-4-4-4-----------------|
D---3-3-3-3-3-5-5-5-5-5-----------------|
A---3-3-3-3-3-5-5-5-5-5-----------------|
E---1-1-1-1-1-3-3-3-3-3-----------------| 2x

E---1-1-3-3-3-3/5-5-5-5-0-0-0---|
B---1-1-1-1-1-1/3-3-3-3-3-3-3---|
G---2-2-2-2-2-2/4-4-4-4-4-4-4---|
D---3-3-3-3-3-3/5-5-5-5-5-5-5---|
A---3-3-------------------------|
E---1-1-------------------------| 2x

Almost there ...

Sign in to get your own page with links to favourite songs and more. You are just one click away...

Login with Facebook Login with Google