Log in

One click and you are in

Login with Facebook Login with Google

Why sign up and log in

Guitar Tabs Explorer
G Love And Special Sauce guitar tabs for Bad girl baby blues

Bad Girl Baby Blues tab by G Love And Special Sauce

G Love And Special Sauce guitar tabs for Bad girl baby blues

Guitar tabs

-------------------------------------------------------------------------------
                             SONG NAME - Band Name
-------------------------------------------------------------------------------
Tabbed by: Tyler J.
E-mail:
Tuning: Standard

A chord diagramG MajorG Love never plays a song the same way twice, so listen to the song and you can
figure the timing out and toss in your own runs, hammers, pulls as you see fit.

e|-----7b-7b------------------2----------------------------------------------|
B|-----8b-8b--6--5--2---------0----------------------------------------------|
G|------------7--6--3--1-0h1--2----------------------------------------------|
D|------------6--7--4--2------1----------------------------------------------|
A|---------------------2------2----------------------------------------------|
E|-0-0-----------------------------------------------------------------------|

'I once had a heart...'

e|1\2-3----------2-----------------------------------------------------------|
B|1\2-2----------0-----------------------------------------------------------|
G|1\2-2---1-0h1--2-----------------------------------------------------------|
D|1\2-2---2------1-----------------------------------------------------------|
A|--------2------2-----------------------------------------------------------|
E|---------------------------------------------------------------------------|


************************************

| /   slide up
| \   slide down
| h   hammer-on
| p   pull-off
| ~   vibrato
| +   harmonic
| x   Mute note
| b   Bend
| pb  Pre-bend
| br  Bend release
| pbr Pre-bend release
| brb Bend release bend

Almost there ...

Sign in to get your own page with links to favourite songs and more. You are just one click away...

Login with Facebook Login with Google