Log in

One click and you are in

Login with Facebook Login with Google

Why sign up and log in

Guitar Tabs Explorer
G Dragon bass tabs for A boy

Bass tabs

Tabbed by: SourChicken
E-mail: sourchicken@gmail.com

For reference, here is my cover: http://www.youtube.com/watch v=hiUNykVex1A

0:01
G|------------------------------------|
D|------------------------------------|
A|--3-3-3-36-6-6-68-8-8-810-10-10-10--|
E|------------------------------------|

G|------------------------------------|
D|------------------------------------|
A|--3-3-3-36-6-6-68-8-8-810-10-10-65--|
E|------------------------------------|

G|----------------------------------| <--------------|
D|----------------------------------|        |
A|--3-3-3-36-6-6-68-8-8-8-1086-865--|        |
E|----------------------------------|        | Play
                           | 3 Times
G|------------------------------------|       |
D|------------------------------------|       |
A|--3-3-3-36-6-6-68-8-8-810-10-10-65--|       |
E|------------------------------------| <------------|


1:07
G|--------------------------------|
D|--------------------------------|
A|--3-3-3-36-6-6-68-8-8-8----865--|
E|--------------------------------|

G|------------------------------------|
D|------------------------------------|
A|--3-3-3-36-6-6-68-8-8-810-10-10-65--|
E|------------------------------------|

G|----------------------------------| <--------------|
D|----------------------------------|        |
A|--3-3-3-36-6-6-68-8-8-8-1086-865--|        |
E|----------------------------------|        | Play
                           | 2 Times
G|------------------------------------|       |
D|------------------------------------|       |
A|--3-3-3-36-6-6-68-8-8-810-10-10-65--|       |
E|------------------------------------| <------------|


2:14
G|------------------------------------|
D|------------------------------------|
A|--3-3-3-36-6-6-68-8-8-810-10-10-10--|
E|------------------------------------|

G|------------------------------------|
D|------------------------------------|
A|--3-3-3-36-6-6-68-8-8-810-10-10-65--|
E|------------------------------------|

G|----------------------------------| <--------------|
D|----------------------------------|        |
A|--3-3-3-36-6-6-68-8-8-8-1086-865--|        |
E|----------------------------------|        | Play
                           | 3 Times
G|------------------------------------|       |
D|------------------------------------|       |
A|--3-3-3-36-6-6-68-8-8-810-10-10-65--|       |

Almost there ...

Sign in to get your own page with links to favourite songs and more. You are just one click away...

Login with Facebook Login with Google