Log in

One click and you are in

Login with Facebook Login with Google

Why sign up and log in

Guitar Tabs Explorer
Fuzztones bass tabs for She s wicked

Bass tabs

artists      the fuzztones

song         she's wicked
e:---------------------------------:
a:-5-5-5-5-8-8-8-8-7-7-7-7-6-6-6-6-:
d:---------------------------------:
g:---------------------------------: x4

         section A
e:----57-88-------57-88-------57-88-------57-8----:
a:-55-------76-55-------76-55-------76-55-------4-:
d:------------------------------------------------:
g:------------------------------------------------:

         section B
e:----57-88-------57-88----:
a:-55-------76-55-------76-:
d:-------------------------:
g:-------------------------: x 4

         section C
e:---------------------------------:
a:-5-5-5-5-8-8-8-8-7-7-7-7-6-6-6-6-:
d:---------------------------------:
g:---------------------------------: x2

         section D
e:----57-88-------57-88-------57-8----:
a:-55-------76-55-------76-55-------4-:
d:------------------------------------:
g:------------------------------------:

  repeat section B

e:----57-88-------57-8----:
a:-55-------76-55-------4-:
d:------------------------:
g:------------------------:

  repeat section C

  repeat section A

e:----79-1010-------79-1010----:
a:-77---------98-77---------98-:
d:-----------------------------:
g:-----------------------------: x2

  repeat section A

  repeat section B

e:----57-88-------57-88----:
a:-55-------76-55-------76-:
d:-------------------------:
g:-------------------------:

  repeat section C

e:----57-88-------57-88----:
a:-55-------76-55-------76-:
d:-------------------------:
g:-------------------------: x2

e:----57-88-------:
a:-55-------76-55-:
d:----------------:
g:----------------:

the end


by      luke murray

Almost there ...

Sign in to get your own page with links to favourite songs and more. You are just one click away...

Login with Facebook Login with Google