Log in

One click and you are in

Login with Facebook Login with Google

Why sign up and log in

Guitar Tabs Explorer
Fuzztones bass tabs for Cinderella

Bass tabs

the fuzztones

cinderella


e:-7-----:
a:----5--:
d:-------:
g:-------:

e:-77----757--77----757-:
a:---5575-------5575----:
d:----------------------:
g:----------------------:
                          x2

e:------------77----757-:
a:-77----757----5575----:
d:---5575---------------:
g:----------------------:
                          x2

e:-77----757-:
a:---5575----:
d:-----------:
g:-----------:
               x2

e:------------77----757-:
a:-77----757----5575----:
d:---5575---------------:
g:----------------------:
                          x2

e:-77----7577----75-:
a:---5575----5575---:
d:------------------:
g:------------------:
                      x2

e:------------------:
a:-77----7577----75-:
d:---5575----5575---:
g:------------------:

e:-77----7577----75-:
a:---5575----5575---:
d:------------------:
g:------------------:


e:-----------:
a:-77----757-:
d:---5575----:
g:-----------:


e:-77----757-:
a:---5575----:
d:-----------:
g:-----------:


e:-77----7577----75-:
a:---5575----5575---:
d:------------------:
g:------------------:
                      x2

e:------------------:
a:-77----7577----75-:
d:---5575----5575---:
g:------------------:


e:-77----7577----75-:
a:---5575----5575---:
d:------------------:
g:------------------:


e:-----------:
a:-77----757-:
d:---5575----:
g:-----------:


e:-77----757-:
a:---5575----:
d:-----------:
g:-----------:


e:-77----757-:
a:---5575----:
d:-----------:
g:-----------:
               x2

e:------------77----757-:
a:-77----757----5575----:
d:---5575---------------:
g:----------------------:
                          x2

e:-77----7577----75-:
a:---5575----5575---:
d:------------------:
g:------------------:
                      x2

e:------------------:
a:-77----7577----75-:
d:---5575----5575---:
g:------------------:


e:-77----7577----75-:
a:---5575----5575---:
d:------------------:
g:------------------:


e:-----------:
a:-77----757-:
d:---5575----:
g:-----------:


e:-77----757-:
a:---5575----:
d:-----------:
g:-----------:


e:-77----757--77----757-:
a:---5575-------5575----:
d:----------------------:
g:----------------------:
                          x2

e:-77----757-:
a:---5575----:
d:-----------:
g:-----------:

Almost there ...

Sign in to get your own page with links to favourite songs and more. You are just one click away...

Login with Facebook Login with Google