Log in

One click and you are in

Login with Facebook Login with Google

Why sign up and log in

Guitar Tabs Explorer
Fuzztones bass tabs for Black out of gretely

Bass tabs with lyrics

The universe is permeated with the odor of kerosene

waaaaaaaaaaaaaaaaah

I was walking down the street at night, thinking in my mind that my life was
right, the moon came up and I looked around, the street lights were on nowhere
around.

My eyes were dark and my heart beat fast, I knew that my dark side
could not last

It was dark as it could be, a deep sea diver could not see,
cars were driving with high beam, you couldn't even tell if Mr. Clean was
clean.

I lit a match and I walked on home, my night side dark time cold and
alone, walked in my door and to my surprise, I had sunglasses on my
eyes

Craig Moore, 1966

(c) Kimerik Music (Craig Moore/Rex Garrett)


Main Riff

G||------------------||
D||------------------||
A||-7-7---5---7-6-5--||
E||-----5---3--------||


Break

G||------------------||------------------||------------------||------------------||
D||------------------||------------------||------------------||-5----------------||
A||-7----------------||------------------||-5----------------||---5--------------||
E||------------------||-5----------------||------------------||-----5------------||

Almost there ...

Sign in to get your own page with links to favourite songs and more. You are just one click away...

Login with Facebook Login with Google