Log in

One click and you are in

Login with Facebook Login with Google

Why sign up and log in

Guitar Tabs Explorer
Future Of Forestry bass tabs for Holiday

Bass tabs

Album: Travel II
Tabbed by: Carlos Bergen (bergencarlos@gmail.com)


Verse
G|---------------------------------------------|
D|-14-14-14-14-10-10-10-10-12-12-12-12-9-9-9-9-|
A|---------------------------------------------|
E|---------------------------------------------|

G|---------------------------------------------|2x
D|-10-10-10-10-5-5-5-5-10-10-10-10-15-15-14-14-|
A|---------------------------------------------|
E|---------------------------------------------|

Chorus
G|---------------------------------------------------------------------|
D|---------------------------------------------------------------------|
A|-7-7-7-7-7-7-7-7-3-3-3-3-3-3-3-3-5-5-5-5-5-5-5-5-10-10-10-10-9-9-9-9-|
E|---------------------------------------------------------------------|

G|-----------------------------------------------------------------|
D|-----------------------------------------------------------------|
A|-7-7-7-7-7-7-7-7-3-3-3-3-3-3-3-3-5-5-5-5-5-5-5-5-2-2-2-2-2-2-2-2-|
E|-----------------------------------------------------------------|

G|-----------------------------------------------------------------|
D|-----------------------------------------------------------------|
A|-3-3-3-3-3-3-3-3-7-7-7-7-7-7-7-7-5-5-5-5-5-5-5-5-7-7-7-7-9-9-9-9-|
E|-----------------------------------------------------------------|

G|---------------------------------|
D|---------------------------------|
A|-3-3-3-3-3-3-3-3-3-3-3-3-3-3-3-3-|
E|---------------------------------|


Verse
G|-----------------------------------------------|
D|--14-14-14-14-10-10-10-10-12-12-12-12-9-9-9-9--|
A|-----------------------------------------------|
E|-----------------------------------------------|

G|-----------------------------------------------|
D|--10-10-10-10-5-5-5-5-10-10-10-10-15-15-14-14--|
A|-----------------------------------------------|
E|-----------------------------------------------|

G|-----------------------------------------------|
D|-7--7--7--7--3--3--3--3--5--5--5--5--2--2--2--2|
A|-----------------------------------------------|
E|-----------------------------------------------|

G|-----------------------------------------------|
D|--3--3--3--3--------------3--3--3--3-10-10-9-9-|
A|--------------3--3--3--3-----------------------|

Almost there ...

Sign in to get your own page with links to favourite songs and more. You are just one click away...

Login with Facebook Login with Google