Log in

One click and you are in

Login with Facebook Login with Google

Why sign up and log in

Guitar Tabs Explorer
The Future Islands bass tabs for Like the moon

Like The Moon bass tab by The Future Islands

The Future Islands bass tabs for Like the moon

Bass tabs

Tuning: Standard (E A D G)


Verse 1:

She knows me too well

G|---------------------------------------------|---------------------------------------------|
D|---------------------------------------------|--------------------------------------5-5-5-5|
A|-5--5----5--5------5-6-7--7----7--7-7/10-10/-|-3--3----3--3------3-------------------------|
E|-------5---------5-----------7---------------|-------3---------3---3-5-3-3--3-3-3-3--------|
And she looks like the day

G|---------------------------------------------|---------------------------------------------|
D|---------------------------------------------|--------------------------------------5-5-5-5|
A|-5--5----5--5------5-6-7--7----7--7-7/10-10/-|-3--3----3--3------3-------------------------|
E|-------5---------5-----------7---------------|-------3---------3---3-5-3-3--3-3-3-3--------|

And she looks like the moon

G|---------------------------------------------|---------------------------------------------|
D|---------------------------------------------|--------------------------------------5-5-5-5|
A|-5--5----5--5------5-6-7--7----7--7-7/10-10/-|-3--3----3--3------3-------------------------|
E|-------5---------5-----------7---------------|-------3---------3---3-5-3-3--3-3-3-3--------|

She knows me too well

G|---------------------------------------------|---------------------------------------------|
D|---------------------------------------------|--------------------------------------5-5-5-5|
A|-5--5----5--5------5-6-7--7----7--7-7/10-10/-|-3--3----3--3------3-------------------------|
E|-------5---------5-----------7---------------|-------3---------3---3-5-3-3--3-3-3-3--------|

Chorus 1:

And I can call you friend

G|-------------------------------|-------------------------------|
D|-------------------------------|-------------------------------|
A|---------7-7-7----------7--5-7-|-8-8-8-8-7h8-8--8--7h8--10-----|
E|-5-5-5-5--------5--5--5--------|---------------------------8---|

And I can be the world

G|-------------------------------|-------------------------------|
D|-------------------------------|-------------------------------|
A|---------7-7-7----------7------|---------5-5-5----------5------|
E|-5-5-5-5--------5--5--5----5---|-3-3-3-3--------3--3--3----3---|

And I can be a friend

G|-------------------------------|-------------------------------|
D|-------------------------------|-------------------------------|
A|---------7-7-7----------7--5-7-|-8-8-8-8-7h8-8--8--7h8--10-----|
E|-5-5-5-5--------5--5--5--------|---------------------------8---|

But I won't be around

G|-------------------------------|-------------------------------|
D|-------------------------------|-------------------------------|
A|---------7-7-7----------7------|---------5-5-5----------5------|
E|-5-5-5-5--------5--5--5----5---|-3-3-3-3--------3--3--3----3---|


Verse 2:

Just don't push me out

G|---------------------------------------------|---------------------------------------------|
D|---------------------------------------------|--------------------------------------5-5-5-5|
A|-5--5----5--5------5-6-7--7----7--7-7/10-10/-|-3--3----3--3------3-------------------------|
E|-------5---------5-----------7---------------|-------3---------3---3-5-3-3--3-3-3-3--------|

And she looks like the moon

G|---------------------------------------------|---------------------------------------------|
D|---------------------------------------------|--------------------------------------5-5-5-5|
A|-5--5----5--5------5-6-7--7----7--7-7/10-10/-|-3--3----3--3------3-------------------------|
E|-------5---------5-----------7---------------|-------3---------3---3-5-3-3--3-3-3-3--------|

She knows me too well

G|---------------------------------------------|---------------------------------------------|
D|---------------------------------------------|--------------------------------------5-5-5-5|
A|-5--5----5--5------5-6-7--7----7--7-7/10-10/-|-3--3----3--3------3-------------------------|
E|-------5---------5-----------7---------------|-------3---------3---3-5-3-3--3-3-3-3--------|

Just don't push me out

G|---------------------------------------------|---------------------------------------------|
D|---------------------------------------------|--------------------------------------5-5-5-5|
A|-5--5----5--5------5-6-7--7----7--7-7/10-10/-|-3--3----3--3------3-------------------------|
E|-------5---------5-----------7---------------|-------3---------3---3-5-3-3--3-3-3-3--------|


Chorus 2:

Just don't say goodbye

G|-------------------------------|-------------------------------|
D|-------------------------------|-------------------------------|
A|---------7-7-7----------7--5-7-|-8-8-8-8-7h8-8--8--7h8--10-----|
E|-5-5-5-5--------5--5--5--------|---------------------------8---|

Letting it grow in my body

G|-------------------------------|-------------------------------|
D|-------------------------------|-------------------------------|
A|---------7-7-7----------7------|---------5-5-5----------5------|
E|-5-5-5-5--------5--5--5----5---|-3-3-3-3--------3--3--3----3---|

Letting it go from my body

G|-------------------------------|-------------------------------|
D|-------------------------------|-------------------------------|
A|---------7-7-7----------7--5-7-|-8-8-8-8-7h8-8--8--7h8--10-----|
E|-5-5-5-5--------5--5--5--------|---------------------------8---|

Taking these chains from my body

G|-------------------------------|-------------------------------|
D|-------------------------------|-------------------------------|
A|---------7-7-7----------7------|---------5-5-5----------5------|
E|-5-5-5-5--------5--5--5----5---|-3-3-3-3--------3--3--3----3---|


Outro:

And she looks like the moon

G|---------------------------------------------|---------------------------------------------|
D|---------------------------------------------|--------------------------------------5-5-5-5|
A|-5--5----5--5------5-6-7--7----7--7-7/10-10/-|-3--3----3--3------3-------------------------|
E|-------5---------5-----------7---------------|-------3---------3---3-5-3-3--3-3-3-3--------|

She knows me too well

G|---------------------------------------------|---------------------------------------------|
D|---------------------------------------------|--------------------------------------5-5-5-5|
A|-5--5----5--5------5-6-7--7----7--7-7/10-10/-|-3--3----3--3------3-------------------------|
E|-------5---------5-----------7---------------|-------3---------3---3-5-3-3--3-3-3-3--------|

She says goodbye

G|---------------------------------------------|---------------------------------------------|
D|---------------------------------------------|--------------------------------------5-5-5-5|
A|-5--5----5--5------5-6-7--7----7--7-7/10-10/-|-3--3----3--3------3-------------------------|
E|-------5---------5-----------7---------------|-------3---------3---3-5-3-3--3-3-3-3--------|


G|---------------------------------------------|---------------------------------------------|
D|---------------------------------------------|-----------------------------------5-5-5-5---|
A|-5--5----5--5------5-6-7--7----7--7-7/10-10/-|-3--3----3--3----3--------------------------5|
E|-------5---------5-----------7---------------|-------3-------3---3-5-3-3--3-3-3-3----------|


/ Slide
h Hammer-on

Almost there ...

Sign in to get your own page with links to favourite songs and more. You are just one click away...

Login with Facebook Login with Google