Log in

One click and you are in

Login with Facebook Login with Google

Why sign up and log in

Guitar Tabs Explorer
Fujiya And Miyagi bass tabs for Uh

Bass tabs

UH – FUJIYA AND MIYAGI


Intro: (0:00)

G ||--------------------------------|--------------------------------|
D ||--------------------------------|--------------------------------|
A ||------------------------3--3----|-------3---------------3--------|
E ||---------------5----------------|5---0-----------5---0-----------|

G ||--------------------------------|
D ||--------------------------------|
A ||-------3---------------3--------|
E ||5---0-----------5---0-----------|

Verse 1: (0:12)

G ||--------------------------------|--------------------------------|
D ||--------------------------------|--------------------------------|
A ||-------3---------------3--------|-------3---------------3--------|
E ||5---0-----------5---0-----------|5---0-----------5---0-----------|

G ||--------------------------------|--------------------------------|
D ||-------3---------------3---3-3h5|-------------------------------5|
A ||5-5-------------5-5-------------|-------3---------------3-----5--|
E ||----5---------------5-----------|5---0-----------5---0------5----|

G ||--------------------------------|--------------------------------|
D ||3-----------------5-3-5---------|--------------------------------|
A ||-------------------------7------|------------------------3--3----|
E ||----------------------------5-5-|5---------------5---------------|


Verse 2: (0:38)

G ||--------------------------------|--------------------------------|
D ||--------------------------------|--------------------------------|
A ||-------3---------------3--------|-------3---------------3--------|
E ||5---0-----------5---0-----------|5---0-----------5---0-----------|

G ||--------------------------------|--------------------------------|
D ||-------3---------------3---3-3h5|-------------------------------5|
A ||5-5-------------5-5-------------|-------3---------------3-----5--|
E ||----5---------------5-----------|5---0-----------5---0------5----|

G ||--------------------------------|--------------------------------|
D ||3-----------------5-3-5---------|--------------------------------|
A ||-------------------------7------|------------------------3--3----|
E ||----------------------------5-5-|5---------------5---------------|

G ||--------------------------------|--------------------------------|
D ||--------------------------------|--------------------------------|
A ||-------3---------------3--------|-------3---------------3--------|
E ||5---0-----------5---0-----------|5---0-----------5---0-----------|

G ||--------------------------------|--------------------------------|
D ||-------3---------------3---3-3h5|-------------------------------5|
A ||5-5-------------5-5-------------|-------3---------------3-----5--|
E ||----5---------------5-----------|5---0-----------5---0------5----|

G ||--------------------------------|--------------------------------|
D ||3-----------------5-3-5---------|--------------------------------|
A ||-------------------------7------|------------------------3--3--3-|
E ||----------------------------5-5-|5---------------5---------------|


G ||----------------|
D ||----------------|
A ||-3--3--3--3--3--|
E ||----------------|


Instrumental Bridge: (1:33)

G ||--------------------------------|--------------------------------|
D ||--------------------------------|--------------------------------|
A ||-------3---------------3--------|-------3---------------3--------|
E ||5---0-----5-5-5-5---0-----5-5-5-|5---0-----5-5-5-5---0-----5-5-5-|

G ||--------------------------------|--------------------------------|
D ||--------------------------------|--------------------------------|
A ||-------3---------------3--------|-------3---------------3--------|
E ||5---0-----5-5-5-5---0-----5-5-5-|5---0-----5-5-5-5---0-----5-5-5-|

G ||--------------------------------|--------------------------------|
D ||--------------------------------|--------------------------------|
A ||-------3---12\----------3---12\-|-------3---12\----------3---12\-|
E ||5---0-----------5---0-----------|5---0-----------5---0-----------|

G ||--------------------------------|--------------------------------|
D ||--------------------------------|--------------------------------|
A ||-------3---------------3--------|-------3---------------3--------|
E ||5---0-----5-5-5-5---0-----5-5-5-|5---0-----5-5-5-5---0-----5-5-5-|

G ||--------------------------------|--------------------------------|
D ||--------------------------------|--------------------------------|
A ||-------3---------------3--------|-------3---------------3--------|
E ||5---0-----5-5-5-5---0-----5-5-5-|5---0-----5-5-5-5---0-----5-5-5-|

G ||--------------------------------|--------------------------------|
D ||--------------------------------|--------------------------------|
A ||-------3---------------3--------|-------3---------------3--------|
E ||5---0-----------5---0-----------|5---0-----------5---0-----------|

G ||--------------------------------|
D ||--------------------------------|
A ||-------3---------------3--------|
E ||5---0-----------5---0-----------|



Verse 3: (2:30)

G ||--------------------------------|--------------------------------|
D ||--------------------------------|--------------------------------|
A ||-------3---------------3--------|-------3---------------3--------|
E ||5---0-----------5---0-----------|5---0-----------5---0-----------|

G ||--------------------------------|--------------------------------|
D ||-------3---------------3---3-3h5|-------------------------------5|
A ||5-5-------------5-5-------------|-------3---------------3-----5--|
E ||----5---------------5-----------|5---0-----------5---0------5----|

G ||--------------------------------|--------------------------------|
D ||3-----------------5-3-5---------|--------------------------------|
A ||-------------------------7------|------------------------3--3--3-|
E ||----------------------------5-5-|5---------------5---------------|

G ||--------------------------------||
D ||--------------------------------||
A ||-3--3--3--3---------------------||
E ||--------------------------------||


******************************************


| \  Slide down
| h  Hammer-on


******************************************

Almost there ...

Sign in to get your own page with links to favourite songs and more. You are just one click away...

Login with Facebook Login with Google