Log in

One click and you are in

Login with Facebook Login with Google

Why sign up and log in

Guitar Tabs Explorer
Fugazi bass tabs for Waiting room

Bass tabs

Waiting Room - Fugazi (Bass)

BY MAX COBURN
maximum28@aol.com

|TUNING: EADG (standard)|
INTRO/PRE VERSE:


 [   X   ]                                               (repeat 8x)
G]-----2-|-------2---------------------------2---------------------|REST FOR 8 BEATS|
D]---2---|4--4-4---4--------------2-3-4--4-4---4--------------2-3-4|                |
A]-4-----|-----------4--4-4-4-4-4----------------4--4-4-4-4-4------|                |
E]-------|---------------------------------------------------------|                |


MAIN RIFF:

REPEAT 4x
G]-------2---------------------------2---------------------|
D]4--4-4---4--------------2-3-4--4-4---4--------------2-3-4|
A]-----------4--4-4-4-4-4----------------4--4-4-4-4-4------|
E]---------------------------------------------------------|


VERSE:

REPEAT 7.5x...........................................then:[               y             ]
G]-------2---------------------------2---------------------|--------2--------------------|
D]4--4-4---4--------------2-3-4--4-4---4--------------2-3-4|-4--4-4---4--4-4-4-4-4-4-4-4-|
A]-----------4--4-4-4-4-4----------------4--4-4-4-4-4------|-----------------------------|
E]---------------------------------------------------------|-----------------------------|

CHORUS:
PART 1:
G]----------------------------------------------------|
D]----------------------------------------------------|
A]-4--4-4-4------------------2--2-2-2-----------------|
E]-------------0-0-0-0-0-0-0-------------0-0-0-0-0-0-0|
PART 2:
G]----------------------------------------------------------------|---------------------|
D]----------------------------------------------------------------|---------------------|
A]-----------------4-4-4-4-4-4-4-4-----------------4-4-4-4-4-4-4-4|---------------------|
E]-2-2-2-2-2-2-2-2-----------------2-2-2-2-2-2-2-2----------------|-0-(hold for 4 beats)|


/ORDER OF SONG:\

INTRO

MAIN RIFF

VERSE

CHORUS

INTRO (without [X], and repeat 4 times instead of 8.  The long rest is still there.)

VERSE

CHORUS

MAIN RIFF (repeat once then do [y])

CHORUS 2x

CHORUS PART2 4x
HOLD OPEN E for 4 beats
F#

Almost there ...

Sign in to get your own page with links to favourite songs and more. You are just one click away...

Login with Facebook Login with Google