Guitar Tabs Explorer
The Frozen Autumn bass tabs for Told you at once

Told You At Once bass tab


Be the first to rate


Bassm99Author: Bassm99

Jamplay guitar lessons

Told You At Once bass tab by The Frozen Autumn

`Told You At Once` from the album `The Fellow Traveller` (2017). Written by Diego Merletto/Froxeanne.

Bass tabs

Print
  • Tuning: Standard tuning
  • Difficulty: Intermediate

Tabbed by: bassm99
E-mail: alanmatthews1966@yahoo.co.uk

Tuning: E, A, D, G

Bass Starts: (0:15)

Intro:

G|----5-5---5-5----3-3---3-3-------------------------------------------------------|
D|------------------------------3-3---3-3---3-3---3-3------------------------------|
A|--3-----3------1-----1-----------------------------------------------------------|
E|----------------------------1-----1-----1-----1----------------------------------|

G|---------------------------------------------------------------------------------|
D|----6-6---6-6----8-8---8-8----3-3---3-3---3-3---3-3------------------------------|
A|---------------------------------------------------------------------------------|
E|--4-----4------6-----6------1-----1-----1-----1----------------------------------|

Verse:

G|----5-5---5-5----3-3---3-3-------------------------------------------------------|
D|------------------------------3-3---3-3---3-3---3-3------------------------------|
A|--3-----3------1-----1-----------------------------------------------------------|
E|----------------------------1-----1-----1-----1----------------------------------|

G|---------------------------------------------------------------------------------|
D|----6-6---6-6----8-8---8-8----3-3---3-3---3-3---3-3------------------------------|
A|---------------------------------------------------------------------------------|
E|--4-----4------6-----6------1-----1-----1-----1----------------------------------|

G|----5-5---5-5----3-3---3-3-------------------------------------------------------|
D|------------------------------3-3---3-3---3-3---3-3------------------------------|
A|--3-----3------1-----1-----------------------------------------------------------|
E|----------------------------1-----1-----1-----1----------------------------------|

G|---------------------------------------------------------------------------------|
D|----6-6---6-6----8-8---8-8----10-10---10-10---10-10---10-10----------------------|
A|---------------------------------------------------------------------------------|
E|--4-----4------6-----6------8-------8-------8-------8----------------------------|

Pre Chorus: (Play Twice)

G|----7-7---7-7----5-5---5-5-------------------------------------------------------|
D|------------------------------5-5---5-5---5-5---5-5------------------------------|
A|--5-----5------3-----3-----------------------------------------------------------|
E|----------------------------3-----3-----3-----3----------------------------------|

G|----3-3---3-3----5-5---5-5-------------------------------------------------------|
D|------------------------------5-5---5-5---5-5---5-5------------------------------|
A|--1-----1------3-----3-----------------------------------------------------------|
E|----------------------------3-----3-----3-----3----------------------------------|

Chorus: (Play Twice)

G|----10-10---10-10----8-8---8-8---------------------------------------------------|
D|----------------------------------8-8---8-8---8-8---8-8--------------------------|
A|--8-------8--------6-----6-------------------------------------------------------|
E|--------------------------------6-----6-----6-----6------------------------------|

G|----6-6---6-6----8-8---8-8-------------------------------------------------------|
D|------------------------------8-8---8-8---8-8---8-8------------------------------|
A|--4-----4------6-----6-----------------------------------------------------------|
E|----------------------------6-----6-----6-----6----------------------------------|

Bass Stops: (1:55 - 2:06)

Bridge: (Fast Riff Pattern)

G|---------------------------------------------------------------------------------|
D|---------------------------------------------------------------------------------|
A|--5-(x17)--5-(x17)--5-(x64)------------------------------------------------------|
E|---------------------------------------------------------------------------------|

Repeat Intro:

Verse:

G|----5-5---5-5----3-3---3-3-------------------------------------------------------|
D|------------------------------3-3---3-3---3-3---3-3------------------------------|
A|--3-----3------1-----1-----------------------------------------------------------|
E|----------------------------1-----1-----1-----1----------------------------------|

G|---------------------------------------------------------------------------------|
D|----6-6---6-6----8-8---8-8----10-10---10-10---10-10---10-10----------------------|
A|---------------------------------------------------------------------------------|
E|--4-----4------6-----6------8-------8-------8-------8----------------------------|

Repeat Pre Chorus:

Repeat Chorus: (Play 4 Times)

End:

G|---------------------------------------------------------------------------------|
D|---------------------------------------------------------------------------------|
A|---------------------------------------------------------------------------------|
E|--8------------------------------------------------------------------------------|

Comment this song and these bass tabs

Do you have corrections, comments on the bass tabs, thoughts about the song or a message to the author? Write them below.