Log in

One click and you are in

Login with Facebook Login with Google

Why sign up and log in

Guitar Tabs Explorer
The Front Bottoms bass tabs for Montgomery forever

Montgomery Forever bass tab by The Front Bottoms

The Front Bottoms bass tabs for Montgomery forever

Bass tabs

Tuning: Standard (E A D G)


Intro:
G|------------------------------|------------------------------|
D|------------------------------|--------10--------------------|
A|----/13-13-13-13-13-13-13-13--|--13--------------------13----|
E|--1---------------------------|------------------------------|
G|------------------------------------------------------------------------|
D|--8-8-x-----------------------------------------------------------------|
A|--------8---8-8-8---3-3-x------------1-1-x-------------1-1-x------------|
E|--------------------------3---3-3-3--------1---1-1-1---------3---3-3-3--|


Verse 1:
G|-------------------|-------------------|-------------------|-------------------|
D|-------------------|-------------------|-------------------|-------------------|
A|-------------------|-------------------|-------------------|-------------------|
E|--1----------------|-------------------|-------------------|-------------------|

G|-------------------|-------------------|-------------------|-------------------|
D|-------------------|-------------------|-------------------|-------------------|
A|-------------------|-------------------|-------------------|-------------------|
E|-------------------|-------------------|-------------------|-------------------|

G|-------------------|-------------------|-------------------|-------------------|
D|-------------------|-------------------|-------------------|-------------------|
A|-------------------|-------------------|--5-5-5-5-5-5-5-5--|--1-1-1-1-1-1-1-1--| (x2)
E|--1-1-1-1-1-1-1-1--|--1-1-1-1-1-1-1-1--|-------------------|-------------------|


Pre-Chorus 1:
G|-------------------|-------------------|-------------------|-------------------|
D|-------------------|-------------------|-------------------|-------------------|
A|-------------------|-------------------|--1----------------|-------------------| (x2)
E|--3----------------|-------------------|-------------------|-------------------|


Chorus 1:
G|-------------------|-------------------|-------------------|-------------------|
D|-------------------|-------------------|-------------------|-------------------|
A|-------------------|--3-3-3-3-3-3-3-3--|--1-1-1-1-1-1-1-1--|--1-1-1-1-1-1-1-1--|
E|--1-1-1-1-1-1-1-1--|-------------------|-------------------|-------------------|

G|-------------------|-------------------|-------------------|--------------------------|
D|-------------------|-------------------|-------------------|--------------------------|
A|-------------------|--3-3-3-3-3-3-3-3--|--1-1-1-1-1-1-1-1--|-/13-13-13-13-13-13-13-13-|
E|--1-1-1-1-1-1-1-1--|-------------------|-------------------|--------------------------|

G|------------------------------------------------------------------------|
D|--8-8-x-----------------------------------------------------------------|
A|--------8---8-8-8---3-3-x------------1-1-x-------------1-1-x------------| (x2)
E|--------------------------3---3-3-3--------1---1-1-1---------3---3-3-3--|

G|-------------------|-------------------|
D|-------------------|-------------------|
A|-------------------|-------------------|
E|--6-6-6-6-6-6-6-6--|--6-6-6-6-6-6-6-6--|


Verse 2:
G|-------------------|-------------------|-------------------|-------------------|
D|-------------------|-------------------|-------------------|-------------------|
A|-------------------|-------------------|--5-5-5-5-5-5-5-5--|--1-1-1-1-1-1-1-1--| (x4)
E|--1-1-1-1-1-1-1-1--|--1-1-1-1-1-1-1-1--|-------------------|-------------------|


Pre-Chorus 2:
G|-------------------|-------------------|-------------------|-------------------|
D|-------------------|-------------------|-------------------|-------------------|
A|-------------------|-------------------|--1----------------|-------------------|
E|--3----------------|-------------------|-------------------|-------------------|

G|-------------------|-------------------|-------------------|-------------------|
D|-------------------|-------------------|-------------------|-------------------|
A|-------------------|-------------------|--1----------------|---------------/13-|
E|--3----------------|-------------------|-------------------|-------------------|


Chorus 2:
G|-------------------|-------------------|-------------------|-------------------|
D|-------------------|-------------------|-------------------|-------------------|
A|-------------------|--3-3-3-3-3-3-3-3--|--1-1-1-1-1-1-1-1--|--1-1-1-1-1-1-1-1--|
E|--1-1-1-1-1-1-1-1--|-------------------|-------------------|-------------------|

G|-------------------|-------------------|-------------------|-------------------|
D|-------------------|-------------------|-------------------|-------------------|
A|-------------------|--3-3-3-3-3-3-3-3--|--1-1-1-1-1-1-1-1--|--1-1-1-1-1-1-3-3--|
E|--1-1-1-1-1-1-1-1--|-------------------|-------------------|-------------------|

G|-------------------|-------------------|-------------------|-------------------|
D|-------------------|-------------------|-------------------|-------------------|
A|-------------------|-------------------|-------------------|-------------------|
E|--3-3-3-3-3-3-3-3--|--5-5-5-5-5-5-5-5--|--6-6-6-6-6-6-6-6--|--6-6-6-6-6-6-6-6--|

G|-------------------|-------------------|-------------------|-------------------|
D|-------------------|-------------------|-------------------|-------------------|
A|-------------------|--3-3-3-3-3-3-3-3--|--1-1-1-1-1-1-1-1--|--1-1-1-1-1-1-1-1--|
E|--1-1-1-1-1-1-1-1--|-------------------|-------------------|-------------------|


Bridge:
G|-------------------|-------------------|-------------------|-------------------|
D|-------------------|-------------------|-------------------|-------------------|
A|-------------------|-------------------|--3-3-3-3-3-3-3-3--|--5-5-5-5-5-5-5-5--| (x2)
E|--5-5-5-5-5-5-5-5--|--6-6-6-6-6-6-6-6--|-------------------|-------------------|

G|-------------------|-------------------|-------------------|-------------------|
D|-------------------|-------------------|-------------------|-------------------|
A|-------------------|-------------------|-------------------|-------------------|
E|--5-5-5-5-5-5-5-5--|--5-5-5-5-5-5-5-5--|--6-6-6-6-6-6-6-6--|--6-6-6-6-6-6-6-6--|

G|-------------------|-------------------|
D|-------------------|-------------------|
A|--3-3-3-3-3-3-3-3--|--5-5-5-5-5-5-5-5--|
E|-------------------|-------------------|

G|-------------------|-------------------|-------------------|-------------------|
D|-------------------|-------------------|-------------------|-------------------|
A|-------------------|-------------------|-------------------|-------------------|
E|--5-5-5-5-5-5-5-5--|--5-5-5-5-5-5-5-5--|--6-6-6-6-6-6-6-6--|--6-6-6-6-6-6-6-6--|

G|-------------------|-------------------|
D|-------------------|-------------------|
A|--3-3-3-3-3-3-3-3--|--5-5-5-5-5-5-5-5--|
E|-------------------|-------------------|


Pre-Chorus 3:
G|-------------------|-------------------|-------------------|-------------------|
D|-------------------|-------------------|-------------------|-------------------|
A|-------------------|-------------------|--1----------------|-------------------|
E|--3----------------|-------------------|-------------------|-------------------|


Chorus 3:
G|-------------------|-------------------|-------------------|-------------------|
D|-------------------|-------------------|-------------------|-------------------|
A|-------------------|--3-3-3-3-3-3-3-3--|--1-1-1-1-1-1-1-1--|--1-1-1-1-1-1-1-1--|
E|--1-1-1-1-1-1-1-1--|-------------------|-------------------|-------------------|

G|-------------------|-------------------|-------------------|-------------------|
D|-------------------|-------------------|-------------------|-------------------|
A|-------------------|--3-3-3-3-3-3-3-3--|--1-1-1-1-1-1-1-1--|--1-1-1-1-1-1-3-3--|
E|--1-1-1-1-1-1-1-1--|-------------------|-------------------|-------------------|

G|-------------------|-------------------|-------------------|-------------------|
D|-------------------|-------------------|-------------------|-------------------|
A|-------------------|-------------------|-------------------|-------------------|
E|--3-3-3-3-3-3-3-3--|--5-5-5-5-5-5-5-5--|--6-6-6-6-6-6-6-6--|--6-6-6-6-6-6-6-6--|

G|-------------------|-------------------|-------------------|-------------------|
D|-------------------|-------------------|-------------------|-------------------|
A|-------------------|--3-3-3-3-3-3-3-3--|--1-1-1-3-3-3-3-5--|--5-7-7-7-8-8-8-8--|
E|--1-1-1-1-1-1-1-1--|-------------------|-------------------|-------------------|


Outro:
G|------------------------------------------------------------------------|
D|--8-8-x-----------------------------------------------------------------|
A|--------8---8-8-8---3-3-x------------1-1-x-------------1-1-x------------| (x2)
E|--------------------------3---3-3-3--------1---1-1-1---------3---3-3-3--|

G|-------------------|-------------------|-------------------|-------------------|
D|-------------------|-------------------|-------------------|-------------------|
A|-------------------|-------------------|-------------------|-------------------|
E|--6-6-6-6-6-6-6-6--|--6-6-6-6-6-6-6-6--|--0-0-0-0-0-0-0-0--|--0-0-0-0-0-0-0-0--|


************************************

| x  Dead note
| /  Slide up

************************************

Almost there ...

Sign in to get your own page with links to favourite songs and more. You are just one click away...

Login with Facebook Login with Google