Log in

One click and you are in

Login with Facebook Login with Google

Why sign up and log in

Guitar Tabs Explorer
From Autumn To Ashes tabs for Chloroform perfume acoustic

Chloroform Perfume Acoustic tab - From Autumn To Ashes

From Autumn To Ashes tabs for Chloroform perfume acoustic

Guitar tabs with lyrics

but, comments are appreciated.
I'm not sure if the other tabs are correct or not, but, as far as the acoustic version
I think this is spot on. Enjoy!


Intro/Verse(x4):
e-------------------------------------------------------------------|
B--------0----------------0---------------0---------------0-------0-|
G------0--------------0-----------------0---0-----------0-------0---|
D----9-------9---9h10---------9-------0-------0-------0-------0-----|
A--7-------7---7--------7---7---7-7h9-----------7-7h9-------9-------|
E-------------------------------------------------------------------|

The end result of so many meetings
Late night diners with no one eating
We sit in corners and sip burnt coffee
Count the tiles upon the ceiling
Skip this pretense and cut straight to dying
But don't beg me to keep your eyes from crying


Pre-Chorus(x2):
e----0-----0------|
B----1-----0------|
G----0-----0------|
D----2-----2------|
A----3-----2------|
E----x-----0------|

You said so much without ever parting your lips
Past 3am and I'm still far from sleep


Chorus(x4):
e----7-----x-----x----|
B----8-----x-----x----|
G----9-----7-----5----|
D----9-----7-----5----|
A----7-----5-----3----|
E----x-----x-----x----|

This is a habit that i cant break
And my only company
Is skipping stones

Intro/Verse x4

And the street lights flicker like this match in my hand
The street lights flicker like this match in my hand
And the street lights flicker like this match in my hand begging to strike
Beggin to strike

And I keep repeating but this payphone tele stopped receiving
Flat out of change now, im sure you wont accept the charges
Its all the same cause by the morning ill be half way to Colorado
or some place like that


Pre-Chorus x2

You said so much without ever parting your lips
Past 3am and im still far from sleep


Chorus x4

This is a habit that I cant break
And my only company
Is skipping stones down this old suburban street


Solo:
e------------------------------------------------------------------------------|
B-3---1---0h1p0----1--1--1-0-1-3-1-0-1--1-0----0---1--1-0----3---1--1-0---0----|
G----0---0-----------0----------------0-------0-0---0-------0-0---0------0-----|
D------------------------------------------------------------------------------|
A------------------------------------------------------------------------------|
E------------------------------------------------------------------------------|
 ^-----x3----------------------------------------------------------------------|

e----3-2-0---0--------------------------|
B----------3---1-3-0-1------------------|
G----------------------2-4-0-2---0------|
D------------------------------4---2----|
A---------------------------------------|
E---------------------------------------|


Bridge:
e----x-----x------x------x----|
B----x-----x------x------x----|
G----9-----7------9-----10----|
D----9-----9-----11-----12----|
A----7-----9-----11-----12----|
E----x-----x------x------x----|

She keeps on asking "do you think it hurts much to die "
Well its hurting so much more to stay alive now
Shes gonna find out how much it hurts to die


Outro:
e----7-----x-----x----|
B----8-----x-----x----|
G----9-----7-----5----|
D----9-----7-----5----|
A----7-----5-----3----|
E----x-----x-----x----|

She laced her perfume up with death
Feel it in my lungs
So ill pull in the deepest breath

Other versions of Chloroform Perfume Acoustic

Chloroform perfumeChords

Almost there ...

Sign in to get your own page with links to favourite songs and more. You are just one click away...

Login with Facebook Login with Google