Log in

One click and you are in

Login with Facebook Login with Google

Why sign up and log in

Guitar Tabs Explorer
The Frights bass tabs for Ghost

Bass tabs

Main Riff
G|-------------------|------------------------:|
D|-------------------|------------------------:|
A|--2--5--0----------|--0--2--5--2--0------0--:| 4 times
E|-------------2--2--|----------------2--2----:|

"You know, you're just a ghost"
G|-----|----------------------------------------------------------|
D|-----|----------------------------------------------------------|
A|-----|----------------------------------------------------------|
E|--5--|---10--10-10-10-10-10--12--12-12--10--10-10---------------|

"Everybody, let's do a toast, you're just a ghost"
G|-----------------------------------|
D|-----------------------------------|
A|-----------------------------------|
E|----5~~~----5------5---------------|

End on
G|----------------|
D|----------------|
A|-------2--------|
E|----------------|

Almost there ...

Sign in to get your own page with links to favourite songs and more. You are just one click away...

Login with Facebook Login with Google