Search tabs and chords

Search for song, artist or band

Log in

One click and you are in

Login with Facebook Login with Google

Why sign up and log in

Guitar Tabs Explorer
Freelance Whales guitar tabs for Ghosting

Guitar tabs

Intro:

Do each pattern twice

Bb chord diagramBbBb pattern (G chord diagramGG shape)

e|-----------------------------------|
B|---------0-------------0-----------|
G|-------2-----0-------2----2---0----|
D|-----0----------------------0------|
A|-----------------------------------|
E|--3--------3-----3-----------------|

Eb chord diagramEbEb pattern (C chord diagramCC shape)

e|-----------0----------0------------|
B|---------3---3-0----3---3---0------|
G|-------0------------------0--------|
D|-----------------------------------|
A|--3---------------3----------------|
E|-----------------------------------|


In the verse, improvise with different qualities of the 'C' shapes on each of the 4 strums

Verse:

  Eb chord diagramEbEb add9  EbMaj7 EbMaj9   Eb chord diagramEbEb

e|---0------0------0-------0-----------------------------------------------------------|
B|---3------0------0-------1-----------------------------------------------------------|
G|---0------0------0-------0-----------------------------------------------------------|
D|---0------2------0-------2-----------------------------------------------------------|
A|---3------3------3-------3-----------------------------------------------------------|
E|-------------------------------------------------------------------------------------|
   "Do you ever.. think about jumping over the back fence"

Then Bb chord diagramBbBb pattern 2 times



pre-Chorus:

It sounds like they are improvising each time they get to this part so try some ideas as well.

   Cm chord diagramCmCm (Am chord diagramAmAm shape)         Eb9 chord diagramEb9Eb9                Bb chord diagramBbBb                  Cm chord diagramCmCm                  Eb9 chord diagramEb9Eb9
e|---------------------------------------------------------------------------------------------------|
B|-------1------------------------------------------------------------1------------------------------|
G|----2------2--2-------------0---0---0----------0---0---0--------2-------2---2----------0---0---0---|
D|---------2--2---2--------0----0---0---0----0-----0---0---0------------2---2---2-----0----0---0--0--|
A|--0--0-----------------3---3----------------------------------0---0---------------3---3------------|
E|-----------------------------------------3---3-----------------------------------------------------|
   "Oh you caught me sleeping in the powe sockets"

Other versions of Ghosting

GhostingChords

Almost there ...

Sign in to get your own page with links to favourite songs and more. You are just one click away...

Login with Facebook Login with Google