Log in

One click and you are in

Login with Facebook Login with Google

Why sign up and log in

Guitar Tabs Explorer
Brooke Fraser tabs for You can close your eyes

You Can Close Your Eyes tab by Brooke Fraser

Brooke Fraser tabs for You can close your eyes

Guitar tabs with lyrics

This may not be QUITE as fancy as in the song but it's pretty darn close! You can add
your own flare from here;D


Intro (x2)
                                               ...Well
----0h2---------------------------------0--------------|
---------3------------3-----3-----3-------3---3--------|
-----------2---2----0-----0-----0---0-----------0------|
--0----0-----0-----------------------------------------|
------------------------2-----0-------0-----0----------|
------------------3------------------------------------|


Verse 1

the sun is surely sinking down.....    ...But the moon is slowly rising
----0h2-----------------------------0-----------------------------------|
---------3-----------3----3-----2h3---3-----3p2-------3-----3-----3-----|
-----------2---2---0----0-----2-----------2-----2---0-----0------0------|
--0----0-----0----------------------------------------------------------|
-----------------------2----0-----------0---------------2------0--------|
-----------------3--------------------------------3---------------------|

---------------------------|
-----3-----------3-----3---|
---0---0---0---0-----0-----|
---------------------------|
-------------------0-------|
-3-------3---0-------------|

And this old world must still be spinnin' round....
---0h2---------------------------------0---------|
--------3------------3-----3-----3-------3---3---|
----------2---2----0-----0-----0---0-----------0-|
-0----0-----0------------------------------------|
-----------------------2-----0-------0-----0-----|
-----------------3-------------------------------|

Oh but I still love you
----------------------------------------------------|
-----3-----3-----3-----3-----3-------3-----3----3---|
---0-----0-----0-----0-----0-------0-----0----0-----|
-------------------0------------------------0-------|
-------2----0-----------------oh2----0--------------|
-3-----------------------3--------------------------|



Chorus

So close your eyes, you can close you eyes it's alright
-------------------------------------------------0---------|
----3---------3---------3---------3----------3-----3--3----|
---0--0--0---0--0---0--0--0--0--0---0--0---0---0--------0--|
-----------------------------------------------------------|
-----------0------0---3----3-------------2------2----2-----|
-3-----3-----------------------3-----3---------------------|

I don't know no love songs, I can't sing the blues anymore
-------------------------------------------------0---------|
----3---------3---------3---------3----------3-----3--3----|
---0--0--0---0--0---0--0--0--0--0---0--0---0---0--------0--|
-----------------------------------------------------------|
-----------0------0---3----3-------------2------2----2-----|
-3-----3-----------------------3-----3---------------------|

Oh but I can song this song
-------------------------------------|
------0-----0-----0----1-----0-------|
----0-----0-----0---0----0-----0-----|
-------------------------------------|
-------------------------------------|
--0-----2-----3------3-----3-----0---|

You can song this song when I'm gone
-------------------------------------0---------------------------------|
------0-----0-----0-----0------3-------3---3-------3-----3-----3-----3-|
----0-----0-----0-----0------0---0-----------0---0-----0-----0-----0---|
-----------------------------------------------------------------------|
--------------------0------2-------2-----2-----------------------0-----|
--0-----2-----3--------------------------------0-----2-----3-----------|


-------0h4-------4--|
-----3-----3--------|
---2---------2------|
-0-------------0----|
--------------------|
--------------------|


(Verse 2)(Same as verse 1)

(chorus)


Outro (after second chorus)
---------------------------------0h2--------0h2---|
-------------0---------0-------3-----3---3--3-----|
---0---2---0---------0---0---2---------2----2-----|
-------------------0-------0----------------0-----|
---------------0h2--------------------------------|
-0---2---3----------------------------------------|


Like I said there are a few more motes played in the actual song
but this is a good enough tab to get you where you wanna be with the song!
If you like PLEASE rate 5 stars! Comments and/or corrections also welcome:)
ⓘ Guitar tab for 'You Can Close Your Eyes' by Brooke Fraser, a female indie artist from Wellington. Brooke Fraser was born in 1983.

Almost there ...

Sign in to get your own page with links to favourite songs and more. You are just one click away...

Login with Facebook Login with Google