Log in

One click and you are in

Login with Facebook Login with Google

Why sign up and log in

Guitar Tabs Explorer
Aretha Franklin bass tabs for Think

Bass tabs

Intro:

Bass enters at 0:08

"Think   think    think..."
G|---------------------|---------------------|--------------------|---------------------|
D|---------------------|---------------------|--------------------|-----------6---------|
A|---------------------|---------------------|--------------------|-------------8-6-4---|
E|-6---------6---------|-6---------6---------|-6--------6---------|-6-----------------6-|

Verse:

G|---------------------|---------------------|---------------------|---------------------|
D|---------5-8---8-----|---------------------|---------5-8---8-----|---------------------|
A|-------8---------5-8-|-6----8---8----------|-------8---------5-8-|-6----8---8----------|
E|-6---6---------------|------------6-1-3-5--|-6---6---------------|------------6-1-3-5--|

 "Let's go back..."
G|---------------------|---------------------|---------------------|---------------------|
D|---------5-8---8-----|---------------------|---------5-8---8-----|---------------------|
A|-------8---------5-8-|-6----8---8----------|-------8---------5-8-|-6----8---8----------|
E|-6---6---------------|------------6-1-3-5--|-6---6---------------|------------6-1-3-5--|

G|---------------------|---------------------|---------------------|---------------------|
D|---------5-8---8-----|---------------------|---------5-8---8-----|---------------------|
A|-------8---------5-8-|-6----8---8----------|-------8---------5-8-|-6----8---8----------|
E|-6---6---------------|------------6-1-3-5--|-6---6---------------|------------6-1-3-5--|

G|---------------------|---------------------|---------------------|---------------------|
D|---------5-8---8-----|---------------------|---------5-8---8-----|---------------------|
A|-------8---------5-8-|-6----8---8----------|-------8---------5-8-|-6----8---8----------|
E|-6---6---------------|------------6-1-3-5--|-6---6---------------|------------6-1-3-5--|


Chorus:

 "Oh freedom... "
G|---------------5-|---6---6---6---6-|---8---8---8---8-|--------------------|
D|---8---8---8-----|-----------------|-----------------|---8---8-6----------|
A|-------------3---|-4---4---4---4---|-6---6---6---6---|-----------8-6--4---|
E|-6---6---6-------|-----------------|-----------------|-6---6------------6-|

G|---------------5-|---6---6---6---6-|---8---8---8---8-|--------------------|
D|---8---8---8-----|-----------------|-----------------|---8---8-6----------|
A|-------------3---|-4---4---4---4---|-6---6---6---6---|-----------8-6--4---|
E|-6---6---6-------|-----------------|-----------------|-6---6------------6-|


Post-Chorus:

1:01
G|-------------------|-----------------|
D|-------6-9-9-------|-----------------|
A|-----9-------6-9-9-|-----6-6-7-7-8-9-|
E|-7-7---------------|-7-7-------------|


Verse:

"There ain't nothing... "
G|---------------------|--------------------|---------------------|--------------------|
D|---------6-9---9-----|--------------------|---------6-9---9-----|--------------------|
A|-------9---------6-9-|-7----9---9---------|-------9---------6-9-|-7----9---9---------|
E|-7---7---------------|------------7-2-4-6-|-7---7---------------|------------7-2-4-6-|

G|---------------------|--------------------|---------------------|--------------------|
D|---------6-9---9-----|--------------------|---------6-9---9-----|--------------------|
A|-------9---------6-9-|-7----9---9---------|-------9---------6-9-|-7----9---9---------|
E|-7---7---------------|------------7-2-4-6-|-7---7---------------|------------7-2-4-6-|

G|---------------------|--------------------|---------------------|--------------------|
D|---------6-9---9-----|--------------------|---------6-9---9-----|--------------------|
A|-------9---------6-9-|-7----9---9---------|-------9---------6-9-|-7----9---9---------|
E|-7---7---------------|------------7-2-4-6-|-7---7---------------|------------7-2-4-6-|

G|---------------------|--------------------|---------------------|--------------------|
D|---------6-9---9-----|--------------------|---------6-9---9-----|--------------------|
A|-------9---------6-9-|-7----9---9---------|-------9---------6-9-|-7----9---9---------|
E|-7---7---------------|------------7-2-4-6-|-7---7---------------|------------7-2-4-6-|


Pre-Chorus:

1:34
G|---9---9---9---9-|---9---9---9---9-|---9---9---9---9-|---9---9------------|
D|-----------------|-----------------|-----------------|---------7----------|
A|-7---7---7---7---|-7---7---7---7---|-7---7---7---7---|-7---7-----9-7--5---|
E|-----------------|-----------------|-----------------|------------------7-|

G|---------------------|-----------------|---------------------|--------------------|
D|---------6-9---9-----|-----------------|---------6-9---9-----|--------------------|
A|-------9---------6-9-|-----6-6-7-7-8-9-|-------9---------6-9-|-7----9---9---------|
E|-7---7---------------|-7-7-------------|-7---7---------------|------------7-2-4-6-|


Chorus:

1:49
G|---------------6-|---7---7---7---7-|---9---9---9---9-|--------------------|
D|---9---9---9-----|-----------------|-----------------|---9---9-7----------|
A|-------------4---|-5---5---5---5---|-7---7---7---7---|-----------9-7--5---|
E|-7---7---7-------|-----------------|-----------------|-7---7------------7-|

G|---------------6-|---7---7---7---7-|---9---9---9---9-|--------------------|
D|---9---9---9-----|-----------------|-----------------|---9---9-7----------|
A|-------------4---|-5---5---5---5---|-7---7---7---7---|-----------9-7--5---|
E|-7---7---7-------|-----------------|-----------------|-7---7------------7-|


Post-Chorus:

G|-------------------------|------------------|
D|----------7-10---10------|------------------|
A|-------10-----------7-10-|-----7-7-8-8-9-10-|
E|-8---8-------------------|-8-8--------------|


Verse:

G|-------------------------|----------------------|-------------------------|----------------------|
D|----------7-10---10------|----------------------|----------7-10---10------|----------------------|
A|-------10-----------7-10-|-8----10---10---------|-------10-----------7-10-|-8----10---10---------|
E|-8---8-------------------|--------------8-3-5-7-|-8---8-------------------|--------------8-3-5-7-|

G|-------------------------|----------------------|-------------------------|----------------------|
D|----------7-10---10------|----------------------|----------7-10---10------|----------------------|
A|-------10-----------7-10-|-8----10---10---------|-------10-----------7-10-|-8----10---10---------|
E|-8---8-------------------|--------------8-3-5-7-|-8---8-------------------|--------------8-3-5-7-|

"You need me..."
G|---10---10---10---10-|---10---10---10---10-|---10---10---10---10-|---10---10------------|
D|---------------------|---------------------|---------------------|-----------8----------|
A|-8----8----8----8----|-8----8----8----8----|-8----8----8----8----|-8----8------10-8-6---|
E|---------------------|---------------------|---------------------|--------------------8-|

G|-------------------------|----------------------|-------------------------|----------------------|
D|----------7-10---10------|----------------------|----------7-10---10------|----------------------|
A|-------10-----------7-10-|-8----10---10---------|-------10-----------7-10-|-8----10---10-------2-|
E|-8---8-------------------|--------------8-3-5-7-|-8---8-------------------|--------------8-3-5---|


Outro:

2:37
G|---------------------|-------------------|---------------------|--------------------|
D|---------------------|---2----3----3-4-5-|---------------------|------7----5----7-5-|
A|-3---3-----3---3-----|-3-----------------|-3---3-----3---3-----|-3------------------|
E|-------3-5-------3-5-|-------------------|-------3-5-------3-5-|--------------------|

G|---------------------|-------------------|---------------------|-----------------|
D|---------------------|-------------2-3-5-|---------------------|---2-3-4-5-4-3-2-|
A|-3---3-----3---3-----|-3-2-3-2-3-3-------|-3---3-----3---3-----|-3---------------|
E|-------3-5-------3-5-|-------------------|-------3-5-------3-5-|-----------------|

G|---------------------|-------------------|---------------------|--------------------|
D|---------------------|---2----3----3-4-5-|---------------------|------7----5----7-5-|
A|-3---3-----3---3-----|-3-----------------|-3---3-----3---3-----|-3------------------|
E|-------3-5-------3-5-|-------------------|-------3-5-------3-5-|--------------------|

G|---------------------|-------------------|---------------------|-----------------|
D|---------------------|-------------2-3-5-|---------------------|---2-3-4-5-4-3-2-|
A|-3---3-----3---3-----|-3-2-3-2-3-3-------|-3---3-----3---3-----|-3---------------|
E|-------3-5-------3-5-|-------------------|-------3-5-------3-5-|-----------------|

                       "Think !!"
G|------------------|--------------------|--------------------|
D|------------------|-------7----8-7-8-9-|-10-----------------|
A|-3----7----8----9-|-10-----------------|--------------------|
E|------------------|--------------------|-------8------------|

Other versions of Think

Think (blues brothers version)Bass tabs

Almost there ...

Sign in to get your own page with links to favourite songs and more. You are just one click away...

Login with Facebook Login with Google