Log in

One click and you are in

Login with Facebook Login with Google

Why sign up and log in

Guitar Tabs Explorer
Aretha Franklin bass tabs for Rock steady

Bass tabs

Tuning: Standard (E A D G)

Key: Em

Difficulty: Intermediate
from 3rd bar:

G|------------------|-------------------|-----------------|------------------|
D|------------------|-------------------|-----------------|------------------|
A|-0-x-0----0---0-3-|0-x-x-0----0-------|0-x-0----0---0-3-|0-x-x-0---0-------|
E|--------3---3-----|---------3---0-3-3-|-------3---3-----|--------3---0-3-3-|

G|------------------|--------------------------------------------------------|
D|------------------|--------------------------------------------------------|
A|0-x-x-0---0---0-3-|--------------------------------------------------------|
E|--------3---3-----|--------------------------------------------------------|


14th:

G|------------------|------------------|-------------------------------------|
D|------------------|------------------|-------------------------------------|
A|0-x-x-0---0-------|0-x---0-0-0---0-3-|-------------------------------------|
E|--------3---0-3-3-|----0-------3-----|-------------------------------------|

17th:

G|--10-10-12------------|------------------|------------------|--10-10-12-----------|
D|----------------------|------------------|------------------|---------------------|
A|0----------0-0---0--3-|0-x---0-0-0---0-3-|0-x---0-0-0---0-3-|0----------0-0---0-3-|
E|---------------3------|----3-------3-----|----3-------3-----|---------------3-----|


21st:

G|------------------|--10-10-12-----------|------------------|---------------|
D|------------------|-------------------3-|------------------|---------------|
A|0-x---0-0-0---0-3-|0----------0-0---0---|0-x---0-0-0---0-3-|---------------|
E|----3-------3-----|---------------3-----|----3-------3-----|---------------|

[26th}

G|--10-10-12-----------|------------------|--10-10-12-----------|------------------|
D|---------------------|------------------|---------------------|------------------|
A|0----------0-0---0-3-|0-x---0-0-0---0-3-|0----------0-0---0-3-|0-x---0-0-0---0-3-|
E|---------------3-----|----3-------3-----|---------------3-----|----3-------3-----|

30th:

G|--10-10-12-----------|--7-7-----5-------5-7-|--------------------|-------------------------|
D|-------------------3-|5-----5-5---5-5-8-----|--------------------|---------------3-5-5-7---|
A|0----------0-0---0---|----------------------|5---------------2-3-|5-5-5-0-3-3-5----------0-|
E|---------------3-----|----------------------|--1-1-1-1-3-5-5-----|-------------------------|

34th:

G|--7----7-------------|---------------|------------------|---------------------|
D|---------3-3-3-5-5-7-|---------------|------------------|---------------------|
A|5--5-5---------------|0--0---0---0-3-|0-x---0-0-0---0-5-|---------------------|
E|---------------------|-----3---3-----|----3-------3-----|---------------------|

[40th}

G|--10-10-12-----------|------------------|--10-10-12-----------|------------------|
D|---------------------|------------------|---------------------|------------------|
A|0----------0-0---0-3-|0-x---0-0-0---0-3-|0----------0-0---0-3-|0-x---0-0-0---0-3-|
E|---------------3-----|----3-------3-----|---------------3-----|----3-------3-----|

[44th}

G|--10-10-12-----------|------------------|--10-10-12-----------|------------------|
D|---------------------|------------------|---------------------|------------------|
A|0----------0-0---0-3-|0-x---0-0-0---0-3-|0----------0-0---0-3-|0-x---0-0-0---0-3-|
E|---------------3-----|----3-------3-----|---------------3-----|----3-------3-----|

[48th}

G|--10-10-12-----------|------------------|--10-10-12-----------|--------------------|
D|---------------------|------------------|---------------------|--------------------|
A|0----------0-0---0-3-|0-x---0-0-0---0-3-|0----------0-0---0-3-|0-x---0-0-0---0-x-3-|
E|---------------3-----|----3-------3-----|---------------3-----|----3-------3-------|

[52nd}

G|------------------|------------------|------------------|7-----------------|
D|------------------|------------------|------------------|------3---3-5-5---|
A|0-x---0-0-0---0-3-|0-x---0-0-0---0-3-|0-x---0-0-0-0-x-5-|--5-5-------------|
E|----3-------3-----|----3-------3-----|----3-------------|------------------|

56th:

G|----------------------|----------------------|--7-----7-----------|--------------|
D|--------------3-5-5-7-|--------------3-5-5-7-|----------3-3-5-5-7-|--------------|
A|5-5-5-0-3-5-5---------|5-5-5-0-3-5-5---------|5---5-5-------------|0-0-0-0---0-3-|
E|----------------------|----------------------|--------------------|--------3-----|

60th:

G|--------------|----------------|------------------|------------------------|
D|--------------|----------------|------------------|------------------------|
A|0-0-0-0---0-3-|0-x-0----0--0-3-|0-0-0-0-0-0-3-0-3-|------------------------|
E|--------3-----|------3---3-----|------------------|------------------------|

66th:
                                    Fade out...
G|--------------|----------------|----------------|----------------|-------------|
D|--------------|----------------|----------------|----------------|-------------|
A|--------------|0-0-0---0---0-3-|0-0-0---0---0-3-|0-0-0---0---0-3-|0-0-0---0----|
E|----------0-0-|------3---3-----|------3---3-----|------3---3-----|------3------|

Almost there ...

Sign in to get your own page with links to favourite songs and more. You are just one click away...

Login with Facebook Login with Google