Log in

One click and you are in

Login with Facebook Login with Google

Why sign up and log in

Guitar Tabs Explorer
Aretha Franklin bass tabs for Respect

Bass tabs

aretha_franklin/respect.btab

Basstab by Jan Bjorklund, Finland;
jani_bjorklund@yahoo.se
You are welcome to request for basstabs or standard notation!
Bienvenidos a pedirme transcripciones para el bajo!

TablEdited by Jan Bjorklund for Kindablue

Tuning : E A D G 	Time Signature: 4/4

 |    |    |    |    |    |    |    |
|--------------------------------|--------------------------------|
|--------------------------------|----------------------------0---|
|3-------3-----------3---3-------|----0-------1-------2-----------|
|--------------5-3h5---------0---|1-------------------------------|

 |    |    |    |    |    |    |    |
|--------------------------------|--------------------------------|
|--------------------------------|----------------------------0---|
|3-------3-----------3---3-------|----0-------1-------2-----------|
|--------------5-3h5---------0---|1-------------------------------|

 |    |    |    |    |    |    |    |
|--------------------------------|--------------------------------|
|5-------5-----------5---5-------|--------------------0---2---3---|
|--------------7-5-----------7---|8---0-------3-------------------|
|--------------------------------|--------------------------------|

 |    |    |    |    |    |    |    |
|--------------------------------|--------------------------------|
|5---5---5-----------5---5-------|3-------------------0---2---3---|
|--------------7-5-----------5---|----0-------3---4---------------|
|--------------------------------|--------------------------------|

 |    |    |    |    |    |    |    |
|--------------------------------|--------------------------------|
|5-------5-----------5---5-------|3-------------------3---1---0---|
|--------------7-5-----------5---|----0-------3-------------------|
|--------------------------------|--------------------------------|

 |    |    |    |    |    |    |    |
|--------------------------------|--------------------------------|
|--------------------------------|-------------and so on maby-----|
|3-------3-----------3---3-------|--------------------------------|
|--------------5-3h5---------0---|--------------------------------|

Other versions of Respect

Respect (Ver. 2)Bass tabs

Almost there ...

Sign in to get your own page with links to favourite songs and more. You are just one click away...

Login with Facebook Login with Google