Log in

One click and you are in

Login with Facebook Login with Google

Why sign up and log in

Guitar Tabs Explorer
Aretha Franklin bass tabs for Respect (Ver. 2)

Bass tabs

G|----------------------------|----------------------------|
D|--------------------------0-|----------------------------|
A|-3--3-------3-3-----0-1-2---|-3--3-------3-3-----0-1-2-3-|
E|------5-3-5-----0-1---------|------5-3-5-----0-1---------|
|---------------------------------------|------------------------------------|
|-5--5--------5-5-----------------------|--5--5--------5-5-------------------|
|-------7-5-7-----7-8-------5--7--8-----|--------7-5-7-----7-8-------8--6--5-|
|---------------------5--8------------x2|----------------------5--8----------|


G|----------------------------|----------------------------|
D|--------------------------0-|----------------------------|
A|-3--3-------3-3-----0-1-2---|-3--3-------3-3-----0-1-2-3-|
E|------5-3-5-----0-1---------|------5-3-5-----0-1---------|


|---------------------------------------|------------------------------------|
|-5--5--------5-5-----------------------|--5--5--------5-5-------------------|
|-------7-5-7-----7-8-------5--7--8-----|--------7-5-7-----7-8-------8--6--5-|
|---------------------5--8------------x2|----------------------5--8----------|


G|----------------------------|----------------------------|
D|--------------------------0-|----------------------------|
A|-3--3-------3-3-----0-1-2---|-3--3-------3-3-----0-1-2-3-|
E|------5-3-5-----0-1---------|------5-3-5-----0-1---------|


|---------------------------------------|
|-5--5--------5-5-----------------------|
|-------7-5-7-----7-8-------5--7--8-----|
|---------------------5--8------------x2|

|-------------------------------------|
|-5--5--------5-5---------------------|
|-------7-5-7-----7-8-------8--6--5---|
|---------------------5--8------------|

G|----------------------------|----------------------------|
D|----------------------------|----------------------------|
A|-3--3-------3-3-----0-11-22-|-3--3-------3-3-----0-1-2-3-|
E|------5-3-5-----0-1---------|------5-3-5-----0-1---------|


|-------------------------------------------------------------------|
|-4--4----4-4-4----4--4----4-4-4------------------------------------|
|-------4-------4--------4-------4--2-2-2---2-2-2---2-2-2---2-2-2---|
|-----------------------------------------2-------2-------2-------2-|

|------------------------------------------------------------------|
|-4-4-4---4-4-4---4-4-4---4-4-4----5-5-5---555-5---5-5-5---5-5-5---|
|-------4-------4-------4-------4--------5-------5-------5-------5-|
|------------------------------------------------------------------|


|----------------------------------|-----------------------------------|
|-5--5------5-5-----3-3-------3-3--|-5--5--------5-5-------------------|
|------7-5------5-3-----5-3-5------|-------7-5-7-----7-8-------5--7--8-|
|----------------------------------|---------------------5--8----------|

|-------------------------------------|
|-5--5--------5-5---------------------|
|-------7-5-7-----7-8-------5--6--5---|
|---------------------5--8------------|

G|----------------------------|----------------------------|
D|--------------------------0-|----------------------------|
A|-3--3-------3-3-----0-1-2---|-3--3-------3-3-----0-1-3-1-|
E|------5-3-5-----0-1---------|------5-3-5-----0-1---------|

|----------------------------|----------------------------|
|----------------------------|----------------------------|
|-3------------------------1-|-3--------------------------|
|----------------0-1---------|----------------0-1---------|

Fade Out

G|----------------------------|
D|--------------------------0-|
A|-3--3-------3-3-----0-1-2---|

Other versions of Respect

RespectBass tabs

Almost there ...

Sign in to get your own page with links to favourite songs and more. You are just one click away...

Login with Facebook Login with Google