Guitar Tabs Explorer
Aretha Franklin bass tabs for Dont play that song

Don't Play That Song bass tab


Be the first to rate

Don't Play That Song bass tab by Aretha Franklin

Bass tabs

Print

Tuning: Standard (E A D G)

Key: C

Difficulty: Novice

Intro
Bass starts at 0:09

G|-----|-----|-----|-----|--------|-----------|
D|-----|-----|-----|-----|------5-|-----------|
A|-----|-----|-----|-----|-5------|3------0-2-|
E|-----|-----|-----|-----|--------|----3------|

Verse I 0:15
G|---------|--------|------0-|2-2--2-0-|------------|-----------|--------|------------|
D|---------|--------|----2---|----2----|3-----------|-----------|------2-|5-3-2-------|
A|-3-------|--5-3-2-|0-3-----|---------|--0-3-x-x---|-0-3-x-x---|--2-5---|--------0-2-|
E|---0-1-2-|3-------|--------|---------|----------x-|1--------x-|3-------|------3-----|

Verse II 0:33
G|---------|--------|--------|-----------|------------|------------|---------------|------------------|
D|---------|--------|------0-|2-0------5-|3-----------|------------|--5-5---5-5----|5-5-3-3-2-2-------|
A|-3-------|--5-3-2-|0-2-3---|---3-2-0---|--0-3-x-x---|--0-3-x-x---|-------------5-|--------------0-2-|
E|---0-1-2-|3-------|--------|-----------|----------x-|1---------x-|3--------------|------------3-----|

Chorus 0:50
G|--------------|--------------|-----------------|------------|
D|--------------|--------------|-------------5-6-|7-x-------5-|
A|--3--3--------|-3--3----3-2--|-------7---7-----|----7-------|
E|--------3--3--|-------x------|5-5--x-----------|------5-----|

G|-----------------|------------|----------------|------------------|
D|3--3-------------|------------|---5-5---5-5----|5-5-3-3-2-2-------|
A|------3--3-x-x---|--0-3-x-x---|--------------5-|--------------0-2-|
E|---------------x-|1---------1-|3---------------|------------3-----|

Verse III 1:08
G|----------|----------| ---------------|---------------|
D|----------|----------|------------5-6-|7------------5-|
A|--3-------|3-3--3-2--|-------7--7-----|--7-x------7---|
E|----0-1-3-|----x-----|5-5--x----------|------5-5------|

G|------------|------------|----------------|------------------|
D|3-----------|------------|--5-5----5-5----|5-5-3-3-2-2-------|
A|--0-3-x-x---|--0-3-x-x---|----------------|--------------0-2-|
E|----------x-|1---------1-|3-----3------3--|------------3-----|

Verse IV 1:25
G|---------|--------|--------|------------|------------|-----------|----------------|----------------|
D|---------|--------|------0-|2-0-------5-|3-----------|----3---2--|5-5-3-3-2-2-----|----------------|
A|-3-------|--5-3-2-|0-2-3---|---3-2-0----|--0-3-x-x---|--3---x----|------------5-5-|--------2-2-5-5-|
E|---0-1-2-|3-------|--------|------------|----------x-|1----------|----------------|3-3-5-5---------|

Chorus 1:43
G|---------|--------|--------|------------|------------|------------|---------------|-----------------|
D|---------|--------|------0-|2-0-------5-|3-----------|------------|--5-5---5-5----|5-5-3-3-2-2----5-|
A|-3-------|--5-3-2-|0-2-3---|---3-2-0----|--0-3-x-x---|--0-3-x-x---|-------------x-|------------5----|
E|---0-1-2-|3-------|--------|------------|----------x-|1---------1-|3--------------|-----------------|

Bridge 2:00
Bass starts at 2:09
G|-----|-----|-----|-----|--------|-----------|
D|5----|-----|-----|-----|------5-|-----------|
A|-----|-----|-----|-----|-5------|3------0-2-|
E|-----|-----|-----|-----|--------|----3------|

Chorus III 2:13
G|---------|--------|--------|------------|-----------|--------|---------------|-----------------------|
D|---------|--------|------0-|2-0-------5-|3----------|--------|--5-5---5-5----|5-5-5-3-3-3-2-2-2------|
A|-3-------|--5-3-2-|0-2-3---|---3-2-0----|--0-3-x-3--|--0-3---|-------------x-|-------------------0-2-|
E|---0-1-2-|3-------|--------|------------|-------x---|1-----1-|3--------------|------------------3----|

Chorus IV 2:31
G|---------|--------|--------|--------------2--|--------|--------|----------------|--------------------------|
D|---------|--------|------0-|2-0-------2-5--5-|3-----2-|3-0-2-3-|5----5-5-5-5----|5-5-5-3-3-3-2-2-2---5-----|
A|-3-------|--5-3-2-|0-2-3---|---3-2-0---------|--0-3---|--------|----------------|------------------5---2-3-|
E|---0-1-2-|3-------|--------|-----------------|--------|--------|--3----------3--|--------------------------|

Fade Out 2:49

*********************************

 / = Slide Up To Fret

 \ = Slide Down To Fret

 h = Hammer On

 p = Pull Off

 b = Bend

 X = Muted Note

**********************************