Log in

One click and you are in

Login with Facebook Login with Google

Why sign up and log in

Guitar Tabs Explorer
Aretha Franklin bass tabs for Better friends than lovers

Better Friends Than Lovers bass tab by Aretha Franklin

Aretha Franklin bass tabs for Better friends than lovers

Bass tabs

Tuning: Standard (E A D G)


Intro:

G|----------|x4
D|----------|
A|----------|
E|-0--------|
Verse 1:

G|-------------------------------------------|
D|-------------------------------------------|
A|--------------------6--6-5--2-3-4--2--0----|
E|-0---0-0----0---0-0---------------------4--|

G|-----------------------------------------|
D|---2-4----4-6---2-4----4-6---------------|
A|--------2------------2-----4--4-6---9-7--|
E|-2-----4------2-----4------------4/9-----|


Chorus:

G|----------------------------------------------------------|x2
D|------------------2-4-2------------------------4----------|
A|---------------4-0-------2-0-3-4--4-6-7-6-4------2-2--4-2-|
E|-0-0--0--0-2--4--------2----4---------------4-2-----------|


G|----11-13-14-13-11-14-13-|
D|-------------------------|
A|-------------------------|
E|-0-----------------------|


Verse 2:


G|----------------------------------------------|
D|----------------------------------------------|
A|-------------------4-5-6--6-5--2-3-4--2--0----|
E|-0---0-0----0---0-0------------------------4--|

G|-----------------------------------------|
D|---2-4----4-6---2-4----4-6---------------|
A|--------2------------2-----4--4-6---9-7--|
E|-2-----4------2-----4------------4/9-----|



Chorus:

G|----------------------------------------------------------|x2
D|------------------2-4-2------------------------4----------|
A|---------------4-0-------2-0-3-4--4-6-7-6-4------2-2--4-2-|
E|-0-0--0--0-2--4--------2----4---------------4-2-----------|

G|----11-13-14-13-11-14-13---11-13-14-13-11-14-13--|
D|-------------------------------------------------|
A|-------------------------------------------------|
E|-0-----------------------------------------------|


Bridge:

G|------------5-----------------------4-------------------------------|
D|--------------------------------------------------------------------|
A|--4--4-4--3--3-3--------2-2---2-4--2-2--2-2-2-2-2-2--4-4-4-4-4-4----|
E|-----------------4-5-7------4---------------------------------------|


Chorus:

G|----------------------------------------------------------|x4
D|------------------4-6-4------------------------6----------|
A|---------------6-2-------4-2-5-6--6-8-9-8-6------4-4--6-4-|
E|-2-2--2--2-4--6--------4----6---------------6-4-----------|


************************************

| / Slide up

************************************

Almost there ...

Sign in to get your own page with links to favourite songs and more. You are just one click away...

Login with Facebook Login with Google