Log in

One click and you are in

Login with Facebook Login with Google

Why sign up and log in

Guitar Tabs Explorer
Aretha Franklin bass tabs for Baby baby baby

Bass tabs

Intro
G|-----------------------------|
D|-----------------------------|
A|-3------2------0------5------|
E|---------------------------5-|
verse 1
G|-----------------------------|----------------------------| (x3)
D|----------------2------------|----------------------------|
A|----------2--5-------------2-|-0----------3--5------------|
E|-3---------------------------|--------------------------5-|

G|-----------------------------|-----------------------------|
D|----------------2------------|-----------------------------|
A|----------2--5-------------2-|-0----------3--5------5------|
E|-3---------------------------|---------------------------5-|


verse 2
G|-----------------------------|----------------------------|
D|----------------2------------|----------------------------|
A|----------2--5-------------2-|-0----------3--5------------|
E|-3---------------------------|--------------------------5-|

G|-----------------------------|-----------------------------|
D|----------------2------------|-----------------------------|
A|----------2--5-------------2-|-0----------3--5--------5----|
E|-3---------------------------|---------------------------5-|

G|-----------------------------|-----------------------------|
D|----------------2------------|-----------------------------|
A|----------2--5-------------2-|-0----------3--5------5------|
E|-3---------------------------|---------------------------5-|

G|------------------------------|-------------------------------|
D|----------------2-------------|-------------------------------|
A|----------2--5---------5----5-|-5------5-----------------0--2-|
E|-3----------------------------|-------------5--3------3-------|

Bridge
G|--------------------------------|-----------------------------|
D|--------------------------------|---------------2------2------|
A|-3------3-----(x-5)------5----3-|-2------2------------------2-|
E|--------------------------------|-----------------------------|

G|-----------------------------|------------------------------|
D|-----------------------------|------------------------------|
A|-0------0------5------5------|-------------------------0--2-|
E|---------------------------5-|-3------3------3------3-------|

G|---------------------------------|-----------------------------|
D|---------------------------------|---------------2------2------|
A|-3------3----7-(x-5)------5----3-|-2------2------------------2-|
E|---------------------------------|-----------------------------|

G|----------------------------------|---------|---------|---------|---------|
D|----------------------------------|---------|---------|---------|---------|
A|-0------0-----(x-0)----x--0--2--4-|-5--5--5-|-5--5--5-|-5--5--5-|-5--5--5-|
E|----------------------------------|---------|---------|---------|---------|


verse 3
G|------------------------------|-----------------------------|
D|----------------2------2------|-----------------------------|
A|----------2--5--------------2-|-0----------3--5------5------|
E|-3----------------------------|---------------------------5-|

G|-------------------------------|------------------------------|
D|-----------------2------2------|------------------------------|
A|-----------2--5--------------2-|-0------0----3--5------5------|
E|-3------3----------------------|----------------------------5-|

G|-------------------------------|------------------------------|
D|-----------------2------2------|------------------------------|
A|-----------2--5--------------2-|-0------0----3--5------5------|
E|-3------3----------------------|----------------------------5-|


Outro
G|------------------------------|---------------------------------| (x3)
D|-----------------2------2-----|---------------------------------|
A|-----------2--5---------------|-3--2------------5--5----5--5----|
E|-3------3---------------------|---------5--5------------------5-|


*************************************

| x Dead note
| (n-n) Fast

*************************************

Almost there ...

Sign in to get your own page with links to favourite songs and more. You are just one click away...

Login with Facebook Login with Google