Log in

One click and you are in

Login with Facebook Login with Google

Why sign up and log in

Guitar Tabs Explorer
Peter Frampton tabs for Somethings happening

Guitar tabs

this is a very accurate song, i have worked very hard on this and being a 14 year
old boy i have alot of homework to catch up on because of this. just enjoy..
e-mail:katsikisj@yahoo.com
some of my other work includes:
crimson and clover by tommy james and the shondells
avalon by roxy music
and the opening to long cool woman by the hollies
intro
|-2--2-2--2-2------------------2-2--2-2--2--2-2--2-2-|
|-2--2-2--2-2--1--1-1--1-1--2--2-2--2-2--2--2-2--2-2-|
|-2--2-3--2-3--1--1-3--1-3--3--3-3--3-3--2--2-3--2-3-|
|-2--2-4--2-4--1--1-2--1-2--4--4-4--4-4--2--2-4--2-4-|
|--------------1--1-1--1-1---------------------------|

|-2--2-2--2-2------------------2-2--2-3-4-|
|-2--2-2--2-2--1--1-1--1-1--1--2-2--2-3-4-|
|-2--2-3--2-3--1--1-3--1-3--1--3-3--3-4-5-|
|-2--2-4--2-4--1--1-2--1-2--1--4-4--4-5-6-|
|--------------1--1-1--1-1--1-------------|

|-2--2-2--2-2-|---7-7--7-7--6-6-|
|-2--2-2--2-2-|---7-7--7-7--6-6-|
|-2--2-3--2-3-X4--8-8--7-7--7-7-|
|-2--2-4--2-4-|---9-9--7-7--8-8-|
|-------------|-----------------|
|-------------|-----------------|

|-2--2-2--2-2--2--2-2--2-2---7-7--7-7--6-6-|
|-2--2-2--2-2--2--2-2--2-2---7-7--7-7--6-6-|
|-2--2-3--2-3--2--2-3--2-3---8-8--7-7--7-7-|do this three times
|-2--2-4--2-4--2--2-4--2-4---9-9--7-7--8-8-|
|------------------------------------------|
|------------------------------------------|

|-5-5-5--5-5-5-5-5-5-5-5-5---7-7-7-7-7-7--7-7-7-7-7-7-7-7-7--|
|-5-5-5--5-5-5-5-5-5-5-5-5---7-7-7-7-7-7--7-7-7-7-7-7-7-7-7--|
|-5-5-5--5-5-5-5-5-5-5-5-5---7-7-7-7-7-7--7-7-7-7-7-7-7-7-7--|
|-3-3-3--3-3-3-3-3-3-3-3-3---5-5-5-5-5-5--5-5-5-5-5-5-5-5-5--|do this twice
|------------------------------------------------------------|
|------------------------------------------------------------|

solo 1-
|------14-15-16-17--14----------------------14--------14-17-14----|
|----15---------------15b-15-14-12b-13p12-----17-14-17--------17b-|
|----------------------------------------14b----------------------|
|-----------------------------------------------------------------|
|-----------------------------------------------------------------|
|-----------------------------------------------------------------|

|----------------------15p12-15-15p12--12-------------------------------|
|-15-13-12--12-13-14b----------------15---------------------------------|
|---------14-----------------------------14b--14p12--12-14-14-14p12-----|
|--------------------------------------------------14--------------14/--|
|-----------------------------------------------------------------------|
|-----------------------------------------------------------------------|

|-2--2-2--2-2--2--2-2--2-2---7-7--7-7--6-6-|
|-2--2-2--2-2--2--2-2--2-2---7-7--7-7--6-6-|
|-2--2-3--2-3--2--2-3--2-3---8-8--7-7--7-7-|do this three times
|-2--2-4--2-4--2--2-4--2-4---9-9--7-7--8-8-|
|------------------------------------------|
|------------------------------------------|

|-2--2-2--2-2--2--2-2--2-2--5--5--5-5\7-7--8-|
|-2--2-2--2-2--2--2-2--2-2--5--5--5-5\7-7--8-|
|-2--2-3--2-3--2--2-3--2-3--5--5--5-5\7-7--8-|
|-2--2-4--2-4--2--2-4--2-4--3--3--3-3\5-5--6-|
|--------------------------------------------|
|--------------------------------------------|

solo 2
|-17-17-17-17-17-16---17-16-------------------14-----------------------|
|------------------17------17-16--14--14-14h16--16-14---------14-17-14-|
|--------------------16-------------16----------------16-14-16---------|
|----------------------------------------------------------------------|
|----------------------------------------------------------------------|
|----------------------------------------------------------------------|

|--------------------17-17-17-17-17-16-17fb-16-17-16----------------|
|----------------------------------------------------17----16-14----|
|-16-14-16-14------------------------------------------16b-------16-|
|------------16-14b-------------------------------------------------|
|-------------------------------------------------------------------|
|-------------------------------------------------------------------|

|---------14-------------------12b////--|
|-14-14h16--16/14--12----12-14----------|
|---------------------14----------------|
|---------------------------------------|
|---------------------------------------|
|---------------------------------------|

|-2--2-2--2-2------------------2-2--2-2--2--2-2--2-2-|
|-2--2-2--2-2--1--1-1--1-1--2--2-2--2-2--2--2-2--2-2-|
|-2--2-3--2-3--1--1-3--1-3--3--3-3--3-3--2--2-3--2-3-|do this a few times
|-2--2-4--2-4--1--1-2--1-2--4--4-4--4-4--2--2-4--2-4-|
|--------------1--1-1--1-1---------------------------|
then soon after this
|--------------------------------8--8--8--8------------5-5-5-5-|
|---------------------------------9--9--9--9----------6-6-6-6--|
|-5-7-7b-7b--7p5---5-7--7-9-10-----10-10-10-10--10-9-7-7-7-7---|
|----------------7---------------------------------------------|
|--------------------------------------------------------------|
|--------------------------------------------------------------|

|--------2-2-2-2-2-2-2-2--2-2-2-2-2----2~~~-|
|-7--5---2-2-2-2-2-2-2-2--2-2-2-2-2----2~~~-|
|-7--5---2-2-2-2-2-2-2-2--2-2-2-2-2----2~~~-|
|-5--3---2-2-2-2-2-2-2-2--2-2-2-2-2----2~~~-|
|--------2-2-2-2-2-2-2-2--2-2-2-2-2----2~~~-|

Almost there ...

Sign in to get your own page with links to favourite songs and more. You are just one click away...

Login with Facebook Login with Google