Log in

One click and you are in

Login with Facebook Login with Google

Why sign up and log in

Guitar Tabs Explorer
Toby Fox bass tabs for Undertale - sans

Bass tabs

-------------------------------------------------------------------------------
               Undertale - sans.
-------------------------------------------------------------------------------
Tabbed by: David Keeler
E-mail: davidakeeler@gmail.com
Resubmitted to GTE by: Grätchen. Because video is embedded her.

Tuning: Drop D

G|--------------------------------------------------------------------|
D|--------------------------------------------------------------------|
A|--------------------------------------------------------------------|
D|--5----5--0--------5----5--0--9--10----10--5--------10----10--5--8--|

G|--------------------------------------------------------------------|
D|--------------------------------------------------------------------|
A|-----------------------------------------------------------------5--|
D|--5----5--0--------5----5--0--9--10----10--5--------10----10--5-----|

G|--------------------------------------------------------------|
D|--------------------------------------------------------------|  repeat whole song twice
A|--6----6--1--------5----5--0--5--6----6--1--------------------|
D|--------------------------------------------------7----7--0--4|


| / slide up
| \ slide down
| h hammer-on
| p pull-off
| ~ vibrato
| + harmonic
| x Mute note

Almost there ...

Sign in to get your own page with links to favourite songs and more. You are just one click away...

Login with Facebook Login with Google