Log in

One click and you are in

Login with Facebook Login with Google

Why sign up and log in

Guitar Tabs Explorer
Toby Fox bass tabs for Ruins

Bass tabs

-------------------------------------------------------------------------------
               Ruins - Toby Fox
-------------------------------------------------------------------------------

Tuning: Standard

Played in 3/4 time
Each * is the and of the beat. I could not figure out how to make the preview
sound like it was in 3/4

G|-----------|-----------|-----------|-----------|-----------|-----------|
D|-----------|-----------|-----------|-----------|-----------|-----------|
A|------2---2|4---------2|------2---2|4-----4-2--|------2---2|4---------2|
E|4----------|------4-1--|4----------|----------2|4----------|------4-1--|
 1 * 2 * 3 * 1
G|-----------|-----------|-----------|----6------|6----------|6---------4|
D|-----------|-----------|-----------|------6-4-6|-----------|------4-6--|
A|------2---2|4---------2|4----------|4----------|-----------|-----------|
E|4----------|--------4--|-----------|-----------|-----------|-----------|

G|6----------|6----------|-----------|-----------|
D|-----------|-----------|-----------|-----------|
A|-----------|-----------|-----------|-----------|
E|-----------|-----------|-----------|-----------|
                                      (look at the "^")
G|-----------|-----------|-----------|-----------|-----------|-----------|I realize that the
D|-----------|-----------|-----------|-----------|-----------|-----------|4th measure's second
A|------2---2|4---------2|------2---2|4-----4-2--|------2---2|4---------2|note (the 4 above the ^)
E|4----------|------4-1--|4----------|----------2|4----------|------4-1--|is too high but
                      ^               does not seem like a
G|-----------|-----------|-----------|-----------|6----------|6----------|huge problem.
D|-----------|-----------|-----------|-----------|-----------|--------5-6|
A|------2---2|4-----4---2|4----------|4----------|-----------|-----------|
E|4----------|--------4--|-----------|-----------|-----------|-----------|

G|-----------|-----------|-----------|----------2|-----------|-----------|
D|7----------|------0-4-5|7----------|7-----0-4--|6----------|----0---3--|
A|-----------|-----------|-----------|-----------|-----------|-----------|
E|-----------|-----------|-----------|-----------|-----------|-----------|

G|-----------|-----------|-----------|-----------|-----------|-----------|
D|4----------|-----------|2----------|-----------|1----------|-----------|
A|-----------|-----------|-----------|-----------|-----------|-----------|
E|-----------|-----------|-----------|-----------|-----------|-----------|

G|-----------|-----------|-----------|-----------|-----------|-----------|
D|0----------|-----------|1----------|-----------|1----------|-----------|
A|-----------|-----------|-----------|-----------|-----------|-----------|
E|-----------|-----------|-----------|-----------|-----------|-----------|

G|-----------|-----------|-----------|-----------|
D|1----------|-----------|-----------|-----------|
A|-----------|-----------|-----------|-----------|
E|-----------|-----------|-----------|-----------|


Since this is my first tab I have ever done I would greatly appreciate if you could correct
any mistakes I have made.


| / slide up
| \ slide down
| h hammer-on
| p pull-off
| ~ vibrato
| + harmonic
| x Mute note

Almost there ...

Sign in to get your own page with links to favourite songs and more. You are just one click away...

Login with Facebook Login with Google