Log in

One click and you are in

Login with Facebook Login with Google

Why sign up and log in

Guitar Tabs Explorer
Toby Fox bass tabs for Fallen down

Bass tabs

This is the lead section to the song "Fallen Down" from
the game Undertale.


Verse:

G|---11----11----11----11----11----11----------------------9-8-9--11-9-------|
D|------11----11----11----11----11----11--9--7--11---7--9--------------9-----|
A|---------------------------------------------------------------------------|
E|---------------------------------------------------------------------------|

G|---11---11---11---11---11---11----12---11----11-----9-11--9--7--6-----|
D|------9----9----9----8----8----8----------11----11--------------------|
A|----------------------------------------------------------------------|
E|----------------------------------------------------------------------|

This section is played three times in the song, but you can repeat it
however many times you want.

Almost there ...

Sign in to get your own page with links to favourite songs and more. You are just one click away...

Login with Facebook Login with Google