Log in

One click and you are in

Login with Facebook Login with Google

Why sign up and log in

Guitar Tabs Explorer
Johnny Foreigner bass tabs for Riff glitcher

Bass tabs

1 + 2 + 3 + 4 +  1 + 2 + 3 + 4 +  1 + 2 + 3 + 4 +  1 + 2 + 3 + 4 +
G|-----------------|-----------------|-----------------|-----------------|
D|-----------------|-----------------|-----------------|-----------------|
A|-----------------|-----------------|-----------------|-----------------|
D|-0-0-5-5-2-2-----|---------0-0-5-5-|-2-2-------------|-----------------|
G|-----------------|-----------------|-----------------|-----------------|
D|-----------------|-----------------|-----------------|-----------------|
A|-----------------|-----------------|-----------------|-----------------|
D|---0-0-5-5-2-2---|-----------------|-0-0-5-5-2-2-----|-----------------|

  1 + 2 + 3 + 4 +  1 + 2 + 3 + 4 +  1 + 2 + 3 + 4 +  1 + 2 + 3 + 4 +
G|-----------------|-----------------|-----------------|-----------------|
D|-----------------|-----------------|-----------------|-----------------|
A|-----------------|-----------------|-----------------|-----------------|
D|-0-0-5-5-2-2-----|---------0-0-5-5-|-2---------------|-----------------|

G|-----------------|-----------------|-----------------|-----------------|
D|-----------------|-----------------|-----------------|-----------------|
A|-----------------|-----------------|-----------------|-----------------|
D|---0-0-5-5-2-2---|-----------------|-0---5---2-2-----|-----------------|


Intro part 3 (1:46, synths come in)

  1 + 2 + 3 + 4 +  1 + 2 + 3 + 4 +  1 + 2 + 3 + 4 +  1 + 2 + 3 + 4 +
G|-----------------|-----------------|-----------------|-----------------|
D|-----------------|-----------------|-----------------|-----------------|
A|-----------------|-----------------|-----------------|-----------------|
D|-0-0-5---2-2-----|---------0-0-5-5-|-2-2-------------|-----------------|

G|-----------------|-----------------|-----------------|-----------------|
D|-----------------|-----------------|-----------------|-----------------|
A|-----------------|-----------------|-----------------|-----------------|
D|---0---5-5-2-2---|-----------------|-0---5-5-2-2-----|-----------------|

  1 + 2 + 3 + 4 +  1 + 2 + 3 + 4 +  1 + 2 + 3 + 4 +  1 + 2 + 3 + 4 +
G|-----------------|-----------------|-----------------|-----------------|
D|-----------------|-----------------|-----------------|-----------------|
A|-----------------|-----------------|-----------------|-----------------|
D|-0-0-5-5-2-2-----|---------0-0-5-5-|-2-2-------------|-----------------|

G|-----------------|-----------------|-----------------|-----------------|
D|-----------------|-----------------|-----------------|-----------------|
A|-----------------|-----------------|-----------------|-----------------|
D|---0-0-5-5-2-2---|-----------------|-0---5---2-2-----|-----------------|

(no bass in verse - 2:16, "i like the night flights best...")


Instrumental (3:16)

  1 + 2 + 3 + 4 +  1 + 2 + 3 + 4 +  1 + 2 + 3 + 4 +  1 + 2 + 3 + 4 +
G|-----------------|-----------------|-----------------|-----------------|
D|-----------------|-----------------|-----------------|-----------------|
A|-----------------|-----------------|-----------------|-----------------|
D|-0-0-5-5-2-2-----|---------0-0-5-5-|-2-2-------------|-----------------|

  1 + 2 + 3 + 4 +  1 + 2 + 3 + 4 +  1 + 2 + 3 + 4 +  1 + 2 + 3 + 4 +
G|-----------------|-----------------|-----------------|-----------------|
D|-----------------|-----------------|-----------------|-----------------|
A|-----------------|-----------------|-----------------|-----------------|
D|---0-0-5-5-2-2---|-----------------|-0-0-5-5-2-2-----|-----------------|

  1 + 2 + 3 + 4 +  1 + 2 + 3 + 4 +  1 + 2 + 3 + 4 +  1 + 2 + 3 + 4 +
G|-----------------|-----------------|-----------------|-----------------|
D|-----------------|-----------------|-----------------|-----------------|
A|-----------------|-----------------|-----------------|-----------------|
D|-0-0-5-5-2-2-----|---------0-0-5-5-|-2-2-------------|-----------------|

  1 + 2 + 3 + 4 +  1 + 2 + 3 + 4 +  1 + 2 + 3 + 4 +  1 + 2 + 3 + 4 +
G|-----------------|-----------------|-----------------|-----------------|
D|-----------------|-----------------|-----------------|-----------------|
A|-----------------|-----------------|-----------------|-----------------|
D|---0-0-5-5-2-2---|-----------------|-0-0-5-5-2-2-----|-----------------|

  1 + 2 + 3 + 4 +  1 + 2 + 3 + 4 +  1 + 2 + 3 + 4 +  1 + 2 + 3 + 4 +
G|-----------------|-----------------|-----------------|-----------------|
D|-----------------|-----------------|-----------------|-----------------|
A|-----------------|-----------------|-----------------|-----------------|
D|-0-0-5---2-2-----|---------0-0-5-5-|-2-2-------------|-----------------|

  1 + 2 + 3 + 4 +  1 + 2 + 3 + 4 +  1 + 2 + 3 + 4 +  1 + 2 + 3 + 4 +
G|-----------------|-----------------|------------------|------------------|
D|-----------------|-----------------|------------------|------------------|
A|-----------------|-----------------|------------------|------------------|
D|---0-0-5-5-2-2---|-----------------|-0-0-5-5-2-2-2/10-|-10-9-9-5-5-7-7-\-|

  1 + 2 + 3 + 4 +  1 + 2 + 3 + 4 +  1 + 2 + 3 + 4 +  1 + 2 + 3 + 4 +
G|-----------------|-----------------|-----------------|-----------------|
D|-----------------|-----------------|-----------------|-----------------|
A|-----------------|-----------------|-----------------|-----------------|
D|-0-0-5-5-2-2-----|---------0-0-5-5-|-2-2-------------|-----------------|

  1 + 2 + 3 + 4 +  1 + 2 + 3 + 4 +  1 + 2 + 3 + 4 +  1 + 2 + 3 + 4 +
G|-----------------|-----------------|------------------|------------------|
D|-----------------|-----------------|------------------|------------------|
A|-----------------|-----------------|------------------|------------------|
D|---0-0-5-5-2-2---|-----------------|-0-0-5-5-2-2-2/10-|-10-9-9-5-5-7-7-\-|


Outro (4:16)
(kind of unsure how accurate this section is because it's so loud
 i struggled to hear the bass, but playing this works)

  1 + 2 + 3 + 4 +  1 + 2 + 3 + 4 +
G|-----------------|-----------------|
D|-----------------|-----------------|
A|-----------------|-----------------|
D|-----------------|-----------------|

G|-----------------|-----------------|-----------------|--------------------|
D|-----------------|-----------------|-----------------|--------------------|
A|-----------------|-----------------|-----------------|--------------------|
D|-10-\--3--/--10--|/--12-/--14-\--3-|---3-3-3-3-3-3-3-|---3-3-3-10-10-10-3-|

G|-----------------|------------------|
D|-----------------|------------------|
A|-----------------|------------------|
D|-----------------|---------10-10--3-|

G|-----------------|--------------------|-----------------|---------|---------------------|
D|-----------------|--------------------|-----------------|---------|---------------------|
A|-----------------|--------------------|-----------------|---------|---------------------|
D|---3-3-3-3-3-3-3-|---3-3-3-10-10-10-3-|---3-3-3-3-3-3-3-|---3-3-3-|-10-\--3--/--10-\--3-|

G|-----------------|--------------------|-----------------|------------------|
D|-----------------|--------------------|-----------------|------------------|
A|-----------------|--------------------|-----------------|------------------|
D|---3-3-3-3-3-3-3-|---3-3-3-10-10-10-3-|-----------------|---------10-10--3-|

G|-----------------|--------------------|-----------------|---------|---------------------|
D|-----------------|--------------------|-----------------|---------|---------------------|
A|-----------------|--------------------|-----------------|---------|---------------------|
D|---3-3-3-3-3-3-3-|---3-3-3-10-10-10-3-|---3-3-3-3-3-3-3-|---3-3-3-|-10-\--3--/--10-\--3-|

G|-----------------|--------------------|-----------------|
D|-----------------|--------------------|-----------------|
A|-----------------|--------------------|-----------------|
D|---3-3-3-3-3-3-3-|---3-3-3-10-10-10-3-|-----------------|


************************************

| /  Slide up
| \  Slide down

************************************

Almost there ...

Sign in to get your own page with links to favourite songs and more. You are just one click away...

Login with Facebook Login with Google