Log in

One click and you are in

Login with Facebook Login with Google

Why sign up and log in

Guitar Tabs Explorer
Foreigner bass tabs for I want to know what love is

I Want To Know What Love Is bass tab by Foreigner

Foreigner bass tabs for I want to know what love is

Bass tabs

Intro :
G|---------------------------------|---------------------------------|
D|---------------------------------|4--------------------------------|
A|6-----------------------4--------|---------------------------------|
E|---------------------------------|---------------------------------|

G|4--------------------------------|---------------------------------|
D|---------------------------------|---------------------------------|
A|----------------6----------------|---------------------------------|
E|---------------------------------|---------------------------------|
Verse 1 :
G|---------------------------------|---------------------------------|
D|---------------------------------|----------------4----------------|
A|----------------6----------------|6-------4------------------------|
E|---------------------------------|---------------------------------|

G|---------------------------------|---------------------------------|
D|---------------------------------|---------------------------------|
A|----------------2----------------|6---------------6----------------|
E|2--------------------------------|---------------------------------|

G|---------------------------------|---------------------------------|
D|---------------------------------|---------------------------------|
A|6---------------6----------------|6-----------------------4--------|
E|---------------------------------|---------------------------------|

G|---------------------------------|---------------------------------|
D|4---------------4----------------|---------------------------------|
A|---------------------------------|2---------------6----------------|
E|---------------------------------|---------------------------------|

G|---------------------------------|---------------------------------|
D|---------------------------------|---------------------------------|
A|6---------------6----------------|6---------------6---------------/|
E|---------------------------------|---------------------------------|

G|---------------------------------|---------------------------------|
D|---------------------------------|---------------------------------|
A|4---------------6-----------6----|6---6-----------6----------------|
E|---------------------------------|---------------------------------|

G|---------------------------------|---------------------------------|
D|------------4--------------------|----------------4-----------4----|
A|----4---6-------6----------------|6-------4------------------------|
E|6--------------------------------|---------------------------------|

G|----------------4-----------4----|---------------------------------|
D|4-----------4--------------------|----------------------------4----|
A|---------------------------------|6-------------------4---6--------|
E|---------------------------------|----------------6----------------|

G|---------------------------------|---------------------------------|
D|---------------------------------|4-----------4---4----------------|
A|6---------------6-------4--------|----------------------------4----|
E|---------------------------------|---------------------------------|

G|4--------------------------------|---------------------------------|
D|---------------------------------|------------------------4--------|
A|------2-2-------6-----------6----|6---------------6----------------|
E|------------4--------------------|---------------------------------|

Pre-Chorus :
G|---------------------------------|---------------------------------|
D|6-----------6---6-----------6----|6-----------6---6-----------6----|
A|---------------------------------|---------------------------------|
E|---------------------------------|---------------------------------|

G|---------------------------------|---------------------------------|
D|6-----------6---6-----------6----|6-----------6---6-------6---6----|
A|---------------------------------|---------------------------------|
E|---------------------------------|---------------------------------|

G|---------------------------------|---------------------------------|
D|6---6-------6---6-----------6----|6-----------6---6-------6--------|
A|---------------------------------|---------------------------------|
E|---------------------------------|---------------------------------|

G|---------------------------------|---------------------------------|
D|----------------------------1----|---------------------------------|
A|2-------1------------------------|---------------------------------|
E|----------------4-------2--------|---------------------------------|


Chorus :
G|---------------------------------|---------------------------------|
D|---------------------------------|---------------------------------|
A|------------------------6--------|4-----------4---4----------------|
E|2-----------2---2----------------|------------------------0---2----|

G|---------------------------------|---------------------------------|
D|---------------------------------|---------------------------------|
A|------------------------6--------|4-----------4---4----------------|
E|4-----------4---4----------------|------------------------4---0----|

G|---------------------------------|---------------------------------|
D|---------------------------------|---------------------------------|
A|------------------------6--------|4-----------4---4----------------|
E|2-----------2---2----------------|------------------------0---2----|

G|---------------------------------|---------------------------------|
D|---------------------------------|---------------------------------|
A|------------------------6--------|4-----------4---4-----------4----|
E|4-----------4---4----------------|---------------------------------|

Interlude :
G|---------------------------------|---------------------------------|
D|----------------------------4----|---------------------------------|
A|4-------------------4---6--------|6-----------6---6----------------|
E|----------------6----------------|---------------------------------|

G|---------------------------------|
D|----------------------------4----|
A|6-------------------4---6--------|
E|----------------6----------------|


Verse 2 :
G|---------------------------------|---------------------------------|
D|---------------------------------|---------------------------------|
A|6---------------6-------4--------|----------------------------4----|
E|---------------------------------|2---------------2----------------|

G|---------------------------------|---------------------------------|
D|---------------------------------|------------4--------------------|
A|2---------------6-------6---6----|----4---6-------6----------------|
E|---------------------------------|6--------------------------------|

G|---------------------------------|------------------------1--------|
D|---------------------------------|4--------------------------------|
A|6-------4------------------------|------------4---2-----------2----|
E|----------------2----------------|---------------------------------|

G|---------------------------------|----------------|
D|---------------------------------|-------4--------| *4 bar instead of 8
A|6-----------6---6-----------6----|6---------------|
E|---------------------------------|----------------|


Pre-Chorus :
G|---------------------------------|---------------------------------|
D|6-----------6---6-----------6----|6-----------6---6-----------6----|
A|---------------------------------|---------------------------------|
E|---------------------------------|---------------------------------|

G|---------------------------------|---------------------------------|
D|6-----------6---6-----------6----|6-----------6---6-------6---6----|
A|---------------------------------|---------------------------------|
E|---------------------------------|---------------------------------|

G|---------------------------------|---------------------------------|
D|6---6-------6---6-----------6----|6-----------6---6-------6--------|
A|---------------------------------|---------------------------------|
E|---------------------------------|---------------------------------|

G|---------------------------------|---------------------------------|
D|----------------------------1----|---------------------------------|
A|2-------1------------------------|---------------------------------|
E|----------------4-------2--------|---------------------------------|


Chorus :
G|---------------------------------|---------------------------------|
D|---------------------------------|---------------------------------|
A|------------------------6--------|4-----------4---4----------------|
E|2-----------2---2----------------|------------------------0---2----|

G|---------------------------------|---------------------------------|
D|---------------------------------|---------------------------------|
A|------------------------6--------|4-----------4---4----------------|
E|4-----------4---4----------------|------------------------4---0----|

G|---------------------------------|---------------------------------|
D|---------------------------------|---------------------------------|
A|------------------------6--------|4-----------4---4----------------|
E|2-----------2---2----------------|------------------------0---2----|

G|---------------------------------|---------------------------------|
D|---------------------------------|---------------------------------|
A|------------------------6--------|4-----------4---4----------------|
E|4-----------4---4----------------|------------------------4---0----|

G|---------------------------------|---------------------------------|
D|---------------------------------|---------------------------------|
A|------------------------6--------|4-----------4---4----------------|
E|2-----------2---2----------------|------------------------0---2----|

G|---------------------------------|---------------------------------|
D|---------------------------------|---------------------------------|
A|------------------------6--------|4-----------4---4----------------|
E|4-----------4---4----------------|------------------------4---0----|

G|---------------------------------|---------------------------------|
D|---------------------------------|---------------------------------|
A|------------------------6--------|4-----------4---4----------------|
E|2-----------2---2----------------|------------------------0---2----|

G|---------------------------------|---------------------------------|
D|---------------------------------|---------------------------------|
A|------------------------6--------|4-----------4---4-------4---4----|
E|4-----------4---4----------------|---------------------------------|

G|---------------------------------|
D|---------------------------------|
A|4-----------4---4-------4---1----|
E|---------------------------------|

G|---------------------------------|---------------------------------|
D|---------------------------------|---------------------------------|
A|------------------------6--------|4-----------4---4----------------|
E|2-----------2---2----------------|------------------------0---2----|

G|---------------------------------|---------------------------------|
D|---------------------------------|---------------------------------|
A|------------------------6--------|4-----------4---4----------------|
E|4-----------4---4----------------|------------------------4---0----|

G|---------------------------------|---------------------------------|
D|---------------------------------|---------------------------------|
A|------------------------6--------|4-----------4---4----------------|
E|2-----------2---2----------------|------------------------0---2----|

G|---------------------------------|---------------------------------|
D|---------------------------------|---------------------------------|
A|------------------------6--------|4-----------4---4-----------4----|
E|4-----------4---4----------------|---------------------------------|

G|---------------------------------|
D|---------------------------------|
A|4-----------4---4-------4---1----|
E|---------------------------------|

G|---------------------------------|---------------------------------|
D|---------------------------------|---------------------------------|
A|------------------------6--------|4-----------4---4----------------|
E|2-----------2---2----------------|------------------------0---2----|

G|---------------------------------|---------------------------------|
D|---------------------------------|---------------------------------|
A|------------------------6--------|4-----------4---4----------------|
E|4-----------4---4----------------|------------------------4---0----|

G|---------------------------------|---------------------------------|
D|---------------------------------|---------------------------------|
A|------------------------6--------|4-----------4---4----------------|
E|2-----------2---2----------------|------------------------0---2----|

G|---------------------------------|---------------------------------|
D|---------------------------------|---------------------------------|
A|------------------------6--------|4-----------4---4-------4---4----|
E|4-----------4---4----------------|---------------------------------|

G|---------------------------------|
D|---------------------------------|
A|4-----------4---4-------4---1----|
E|---------------------------------|

Fade out :
G|---------------------------------|---------------------------------|
D|---------------------------------|---------------------------------|
A|------------------------6--------|4-----------4---4----------------|
E|2-----------2---2----------------|------------------------0---2----|

G|---------------------------------|---------------------------------|
D|---------------------------------|---------------------------------|
A|------------------------6--------|4-----------4---4----------------|
E|4-----------4---4----------------|------------------------4---0----|

G|---------------------------------|---------------------------------|
D|---------------------------------|---------------------------------|
A|------------------------6--------|4-----------4---4----------------|
E|2-----------2---2----------------|------------------------0---2----|

G|---------------------------------|---------------------------------|
D|---------------------------------|---------------------------------|
A|------------------------6--------|4-----------4---4-------4---4----|
E|4-----------4---4----------------|---------------------------------|

Almost there ...

Sign in to get your own page with links to favourite songs and more. You are just one click away...

Login with Facebook Login with Google