Log in

One click and you are in

Login with Facebook Login with Google

Why sign up and log in

Guitar Tabs Explorer
For King & Country guitar tabs for Control

Guitar tabs

Tuning: Standard (E A D G B E)


Chorus:
A chord diagramFF A chord diagramC majorC A chord diagramFF A chord diagramC majorC A chord diagramA minorAm A chord diagramG MajorG A chord diagramFF

A|---0----0----0----0----1----1----1----1--|
E|--1----1----1----1----0----0----0----0---|
C|-0----0----0----0----0----0----0----0----|
G|----2----2----2----2----0----0----0----0-|

A|---0----0----0----0----1----1----1----1--|
E|--1----1----1----1----0----0----0----0---|
C|-0----0----0----0----0----0----0----0----|
G|----2----2----2----2----0----0----0----0-|

A|---0----0----2----2----0----0--|
E|--0----0----3----3----1----1---|
C|-0----0----2----2----0----0----|
G|----2----2----0----0----2----2-|

Almost there ...

Sign in to get your own page with links to favourite songs and more. You are just one click away...

Login with Facebook Login with Google