Log in

One click and you are in

Login with Facebook Login with Google

Why sign up and log in

Guitar Tabs Explorer
Fools Garden bass tabs for Lemon tree

Bass tabs

Tuning: Drop D (D A D G)

Difficulty: Novice

0:00 Intro
G|----------------------------------------------|
D|-3--3--------3--3--------------------3----1-3-|
A|-------3--3--------3--3-2-1-1--3--3-----3-----|
D|----------------------------------------------|
0:15 Couplet
G|--------------------------------------------------------------|
D|-3---------------3---------------3---------------3------------|
A|----3--5-3--3--5----3--5-3--3--5----3--5-3--3--5----3--5-3--3-|
D|--------------------------------------------------------------|

G|---------------------------|
D|-----3-------5----3----1-3-|
A|-2-1----5-3-----5----3-----|
D|---------------------------|

0:35 Couplet
G|--------------------------------------------------------------|
D|-3---------------3---------------3---------------3------------|
A|----3--5-3--3--5----3--5-3--3--5----3--5-3--3--5----3--5-3--3-|
D|--------------------------------------------------------------|

G|---------------------------|
D|-----3-------5----3----1-3-|
A|-2-1----5-3-----5----3-----|
D|---------------------------|

0:55 Refrain
G|----------3-----5--------------------------------------|
D|-6-----------3--------5-------6--------6---------------|
A|----6--6-----------3-----3-4-----6--------6--4-6-6-3---|
D|------------------------------------8----------------8-|

G|----------3-----5------------------------------------|
D|-6-----------3--------5-------6----------------------|
A|----6--6-----------3-----3-4-----4-6-----6--6--------|
D|--------------------------------------8-------8--8-1-|

1:22 Pont
G|--------------------------------------------------------|
D|-3---------------3----------------3-------5----3----1-3-|
A|----3--5-3--3--5----3--5-3--3-2-1----5-3-----5----3-----|
D|--------------------------------------------------------|

1:35 Couplet
G|--------------------------------------------------------------|
D|-3---------------3---------------3---------------3------------|
A|----3--5-3--3--5----3--5-3--3--5----3--5-3--3--5----3--5-3--3-|
D|--------------------------------------------------------------|

G|---------------------------|
D|-----3-------5----3----1-3-|
A|-2-1----5-3-----5----3-----|
D|---------------------------|

1:54 Couplet
G|--------------------------------------------------------------------|
D|-------------------------------5--2-3--3---------3-6--3-------------|
A|-2-1-2-3-2-1-4-3--3----1-3--3------------3--3-----------6--6--------|
E|--------------------5-------------------------3--------------8--8-1-|

G|-------------3----5--5--5-|
D|-3-6--3-6--6----6---------|
A|--------------------------|
E|--------------------------|

2:09 Couplet
G|--------------------------------------------------------|
D|-3---------------3----------------3-------5----3----1-3-|
A|----3--5-3--3--5----3--5-3--3-2-1----5-3-----5----3-----|
D|--------------------------------------------------------|

2:22 Refrain
G|----------3-----5---------------------------------------|
D|-6-----------3----3----5-------6--------6---------------|
A|----6--6------------3-----3-4-----6--------6--4-6-6-3---|
D|-------------------------------------8----------------8-|

G|----------3-----5------------------------------------|
D|-6-----------3--------5-------6----------------------|
A|----6--6-----------3-----3-4-----4-6-----6--6--------|
D|--------------------------------------8-------8--8-1-|

G|------------------3-------------------------------------------------------|
D|---------6-----------3--3--6-5--------6-------8-------6-----------6-----6-|
A|------------6--6----------------6--4-----4-6-----3-4-----4-6--3-4----6----|
E|-1-3-5-8------------------------------------------------------------------|

Almost there ...

Sign in to get your own page with links to favourite songs and more. You are just one click away...

Login with Facebook Login with Google