Log in

One click and you are in

Login with Facebook Login with Google

Why sign up and log in

Guitar Tabs Explorer
Foo Fighters bass tabs for Walking after you

Bass tabs

Tuning: Standard (E A D G)

/xS = slide from fret of note to other


🤘 Intro:

G|----------------------------------------|
D|----------------------------------------|
A|------7---7-------------7---7-----------|
E|-0---------------0--0-------------------|
          x2
🤘 Verse:
G|----------------------------------------|
D|----------------------------------------|
A|-------7---7---------7------7-----------|
E|--0-------------4-4------4--------------|

G|----------------------------------------|
D|----------------------------------------|
A|----------7--------------------7--------|
E|--5-5-----------5--5/6s--6-6------------|

G|----------------------------------------|
D|----------------------------------------|
A|---------------7--------7---------------|
E|-6/5s--5--5---------5-------------------|
(continuation of same bar, couldn't fit)
G|----------------------------------------|
D|----------------------------------------|
A|6--6-----------7/6s---------------------|
E|-----7---------------7------------------|
🤘 Verse 2:

🤘 Chorus:

G|----------------------------------------|
D|----------2----2------------------------|
A|----------------------------------------|
E|--0---0---------------0---0-------------|

G|----------------------------------------|
D|-----------4-4------------4-------------|
A|----------------------------------------|
E|--2--2-----------0-2--2-----------2/5---|

G|----------------------------------------|
D|----------7--7----------------7---------|
A|----------------------------------------|
E|-5--5---------------0-5--5-----------5/0|

G|----------------------------------------|
D|----------------------------------------|
A|------7---7-------------7---7-----------|
E|-0---------------0--0-------------------|

🤘 Bridge:
G|----------------------------------------|
D|--------------------------4-6-----------|
A|--4--4----0-4---4-0--4-6----------------|
E|----------------------------------------|

G|----------------------------------------|
D|-------7--7------7-----------4------4---|
A|----------------------------------------|
E|-5-----------0-5----5/2---2---0-2----2/0|


************************************

| / Slide up

************************************

Almost there ...

Sign in to get your own page with links to favourite songs and more. You are just one click away...

Login with Facebook Login with Google